MUZBANK


МУЗЫКАЛЬНО-ИНФОРМАЦИОННЫЙ БАНК





PPolice • Cant Stand Losing You (аккорды и текст - chords & lyrics)


362

Print

Видео «Cant Stand Losing You (Police)»

Видео клипы к песне подбираются автоматически сайтом youtube. Возможны некоторые несоответствия клипов песне.

↑ Спрятать рекламу ↑





INTERLUDE:
e e e e e e e e e e e e e e e e e e e e e e e e e e e e e e e e
+---+-----------------+-----------------+-----------------+-----------------+
|4:-|-R-----7-5-R-7-7-|-R-----7-5---R---|-R-----7-5-R-7-7-|-R-----7-5-5-----|
|4:-|---5-8-----------|---5-8-----7---5-|---5-8-----------|---8-7-------7-5-|
+---+-----------------+-----------------+-----------------+-----------------+


VERSE I:
e e q h e e q h 4 Q e h 2 Q e h Q e e e e e
+----------+----------+---------+-------+-------------+
|*-R-----R-|-R-----R-*|*-------*|-------|-------------|
|*---5-5---|---------*|*-1-----*|-3-----|-3-3-5-5-5-5-|
+----------+---3-3----+----1-1--+---3-3-+-------------+


CHORUS I:
e e e e e e e e 2 e e e e e e e e 2 e e e e e e e e 2
+-------------------+-------------------+-------------------+
|*-----------------*|*-----------------*|*-----------------*|
|*-----------------*|*-----------------*|*-----------------*|
+--5-6-6-6-5-6-6-6--+--2-3-3-3-2-3-3-3--+--4-5-5-5-4-5-5-5--+


SOLO:
e e s s e e s s e s s+ e q e e e e e e q e e e e e e q e e e e e
+-----------------------+---------------+-----------0-0-+-----------0-0-+
|-R-------0-R-3-3---R---|-------0-R-3-3-|-R-------R-----|-------2-R-----|
|---1-1-1---------1---1-|-1-1-1---------|---3-3-2-------|-3-3-3---------|
+-----------------------+---------------+---------------+---------------+


e e e e e e e e e e s s e s s e e e e q e e e q e e e e e e e e
+-------------------+-------------------+-----------0-+-2-2-2-2-2-2-2-2-+
|---------0-R-3-3-3-|---R---------0-R-3-|-------2-R---|-----------------|
|-1-1-1-1-----------|-1---1-1-1-1-------|-3-3-3-------|-----------------|
+-------------------+-------------------+-------------+-----------------+


VERSE II:
e e e e e e e e 8 Q e h 2 Q e h Q e e e e e
+-------------------+---------+-------+-------------+
|*-----------------*|*-------*|-------|-------------|
|*-5-5-5-5-5-5-5-5-*|*-1-----*|-3-----|-3-3-5-5-5-5-|
+-------------------+----1-1--+---3-3-+-------------+


CHORUS II:
e e e e e e e e 2 e e e e e e e e 2 e e e e e e e e 2
+-------------------+-------------------+-------------------+
|*-----------------*|*-----------------*|*-----------------*|
|*-----------------*|*-----------------*|*-----------------*|
+--7-8-8-8-7-8-8-8--+--4-5-5-5-4-5-5-5--+--5-6-6-6-5-6-6-6--+


FADE OUT:
e e e e e e e e e e e e e e e e
+------------------+------------------+
|*-R-----7-5-R-7-7-|-R-----7-5---R---*|
|*---5-8-----------|---5-8-----7---5-*|
+------------------+------------------+

Тональность:

Это должно быть в ТОП-листе! - Топ-лист композиций



Назад
Рекомендуем посмотреть другие песни исполнителя «Police»:

  • Комменты Fb ()
  • Комменты ВК



Добавить в Избранное Браузера
Сохранить здесь Очистить


x

0


+
-

+
-

-

Авторизация





Зарегистрироваться

M

Дата и время

  • 19:51:59
     

Социальные ссылки


Наши приложения

  • Muzbank App Play Market
  • Muzbank Amazon App