MUZBANK


МУЗЫКАЛЬНО-ИНФОРМАЦИОННЫЙ БАНК





АПорги и бес акт II/ сцена I (I got plenty of nothing) • Ария Порги (аккорды и текст - chords & lyrics)


785

Print

Видео «Ария Порги (Порги и бес акт II/ сцена I (I got plenty of nothing))»

Видео клипы к песне подбираются автоматически сайтом youtube. Возможны некоторые несоответствия клипов песне.

↑ Спрятать рекламу ↑






E|---------------------------7-------3----------------------|
B|---0---1---3---3---3---5---7---3---3---55--3---4---0------|
G|---0---2---4---5---4---5---7---5-------55--4---4---1---2--|
D|---0---2---4---7---------------4---------------7-------2--|
A|-----------------------------------------------------0----|
E|-3---3---3---3---3---3---3---3---3---3---3---7---0--------|


E|-----------------|
B|--0-------0---0--|
G|--1---2---1---1--|
D|------2-----2----|
A|----0-------0----|
E|0-------0-----0--|


                 The folks...
E|----------------------------77--5---3---------------------|
B|--------------------3---5---77--5---3---5---3---0---0-----|
G|---6---6---6----7---4---5---77----------5---4---6---1---2-|
D|---6---6---6----7-------------------------------7-------2-|
A|---8---8---8----9-------------------------------------0---|
E|-9---9---9---10---3---3---3---3---3---3---3---7---0-------|


E|-----------------|
B|---0-------0-----|
G|---1---2---1-----|
D|-------2-----2---|
A|-----0-------0---|
E|-0-------0-----0-|


E|------------------------00--2-----|
B|--------------------3---11--3---3-|
G|---6---6---6----7---4---22--4---4-|
D|---6---6---6----7---5-------------|
A|---8---8---8----9-----------------|
E|-9---9---9---10---3---3---3---3---|



I got no lock on the door...                   ....all are free
E|-------------------------------------------------------------|
B|--------3---5---3---3---3---5---3---3---3---5----------------|
G|--------4---4---4---4---4---4---4---4---4---4----------------|
D|-------------------------------------------------------------|
A|-2----2-------2-------2-------2-------2-------2---0--5--0--5-|
E|---0------0-------0-------0-------0-------0------------------|


            Oh, I got...
E|---------------------77------3------------------------------|
B|-------------3---5---77--3---3---5---3---4---0-------0------|
G|-------------4---5---77--5-------5---4---4---1---2---1---2--|
D|-12-10-9-7-5-------------4---------------7-------2-------2--|
A|-----------------------------------------------0-------0----|
E|-10-8--7-5-3---3---3---3---3---3---3---7---0-------0--------|


E|--------|
B|--0---0-|
G|--1-2-1-|
D|----2---|
A|----0---|
E|0-----0-|


E|-------------------------------------------------------------|
B|-----------6---6---6-------3---55--3-----3---55--3---3-3---5-|
G|---6---6---6---6---6---7---4---55--4-5---4---55--4-5-4-4---3-|
D|---6---6---6---6---6---7-------77----7-------77----5---------|
A|---8---8---------8---5---------------5-------------3-----3---|
E|-9---9---9---4-----------3---3---3-----3---3---3-----3-------|


E|------|
B|--8-5-|
G|--7-5-|
D|----4-|
A|5-----|
E|------|


E|-------------0--------------|
B|-3-3-3-3-------3--0-------3-|
G|-3-3-5-5--------3--0--0-----|
D|-3-3-4-4-0-----------2----5-|
A|----------------------------|
E|--------------------------3-|


Слова:


Oh, I got plenty o' nuttin',
An' nuttin's plenty fo' me.
I got no car, got no mule,
I got no misery.


De folks wid plenty o' plenty
Got a lock on dey door.
'Fraid somebody's agoin' to rob `em
While dey's out amakin' more.
What's for?


I got no lock on de door,
(Dat's no way to be)
Dey can steal de rug from de floor
Dat's okeh wid me,
'Cause de things dat I prize
Like de stars in de skies
All are free.


Oh, I got plenty o' nuttin',
An' nuttin''s plenty for' me,
I got my gal, got my song,
got Hebben de whole day long!

No use complainin'!
Got my gal, got my Lawd, got my song.

Тональность:

Это должно быть в ТОП-листе! - Топ-лист композиций



Назад

  • Комменты Fb ()
  • Комменты ВК



Добавить в Избранное Браузера
Сохранить здесь Очистить


x

0


+
-

+
-

-

Авторизация





Зарегистрироваться

M

Дата и время

  • 04:39:25
     

Социальные ссылки


Наши приложения

  • Muzbank App Play Market
  • Muzbank Amazon App