MUZBANK


МУЗЫКАЛЬНО-ИНФОРМАЦИОННЫЙ БАНК





PProcol Harum • Shade Of Pale (аккорды и текст - chords & lyrics)


476

Print

Видео «Shade Of Pale (Procol Harum)»

Видео клипы к песне подбираются автоматически сайтом youtube. Возможны некоторые несоответствия клипов песне.

↑ Спрятать рекламу ↑





Tuning : E A D G Time Signature: 4/4

| | | | | | | |
|--------------------------------|--------------------------------|
|--------------------------------|--------------------------------|
|3-----------3---2-----------2---|0-----------0-------------------|
|--------------------------------|----------------3-----------3---|

| | | | | | | |
|--------------------------------|--------------------------------|
|3-----------3---2-----------2---|0-----------0-------------------|
|--------------------------------|----------------3-----------3---|
|--------------------------------|--------------------------------|

| | | | | | | |
|0-----------0-------------------|--------------------------------|
|----------------3-----------3---|2-----------2---0-----------0---|
|--------------------------------|--------------------------------|
|--------------------------------|--------------------------------|

| | | | | | | |
|--------------------------------|0-----------0-------------------|
|----------------3-----------3---|--------------------------------|
|3-----------3-------------------|--------------------------------|
|--------------------------------|----------------3-----3-3-------|

| | | | | | | |
|--------------------------------|--------------------------------|
|--------------------------------|--------------------------------|
|3-----------3---2-----------2---|0-----------0-------------------|
|--------------------------------|----------------3-----------3---|

| | | | | | | |
|--------------------------------|--------------------------------|
|3-----------3---2-----------2---|0-----------0-------------------|
|--------------------------------|----------------3-----------3---|
|--------------------------------|--------------------------------|

| | | | | | | |
|0-----------0-------------------|--------------------------------|
|----------------3-----------3---|2-----------2---0-----------0---|
|--------------------------------|--------------------------------|
|--------------------------------|--------------------------------|

| | | | | | | |
|--------------------------------|--------------------------------|
|--------------------------------|--------------------------------|
|3-----------3---2-----------2---|0-----------0-------------------|
|--------------------------------|----------------3-----------3---|

| | | | | | | |
|--------------------------------|--------------------------------|
|3-----------3---2-----------2---|0-----------0-------------------|
|--------------------------------|----------------3-----------3---|
|--------------------------------|--------------------------------|

| | | | | | | |
|0-----------0-------------------|--------------------------------|
|----------------3-----------3---|3-----------3---2-----------2---|
|--------------------------------|--------------------------------|
|--------------------------------|--------------------------------|

| | | | | | | |
|----------------0---------------|--------------------------------|
|0-----------0-------------------|3-----------3---2-----------2---|
|--------------------------------|--------------------------------|
|----------------------3-----3---|--------------------------------|

| | | | | | | |
|--------------------------------|0-----------0-------------------|
|0-----------0-------------------|----------------3-----------3---|
|----------------3-----------3---|--------------------------------|
|--------------------------------|--------------------------------|

| | | | | | | |
|--------------------------------|--------------------------------|
|2-----------2---0-----------0---|------------------------3-------|
|--------------------------------|3-----------3-------------------|
|--------------------------------|----------------1---------------|

| | | | | | | |
|------------------------0-------|--------------------------------|
|--------------------------------|--------------------------------|
|3-----------3-------------------|3-----------3---2-----------2---|
|----------------3-----------3---|--------------------------------|

| | | | | | | |
|--------------------------------|--------------------------------|
|--------------------------------|3-----------3---2-----------2---|
|0-----------0-------------------|--------------------------------|
|----------------3-----------3---|--------------------------------|

| | | | | | | |
|--------------------------------|0-----------0-------------------|
|0-----------0-------------------|----------------3-----------3---|
|----------------3-----------3---|--------------------------------|
|--------------------------------|--------------------------------|

| | | | | | | |
|--------------------------------|--------------------------------|
|--------------------------------|--------------------------------|
|3-----------3---2-----------2---|0-----------0-------------------|
|--------------------------------|----------------3-----------3---|

| | | | | | | |
|--------------------------------|--------------------------------|
|3-----------3---2-----------2---|0-----------0-------------------|
|--------------------------------|----------------3-----------3---|
|--------------------------------|--------------------------------|

| | | | | | | |
|0-----------0-------------------|--------------------------------|
|----------------3-----------3---|2-----------2---0-----------0---|
|--------------------------------|--------------------------------|
|--------------------------------|--------------------------------|

| | | | | | | |
|--------------------------------|--------------------------------|
|--------------------------------|--------------------------------|
|3-----------3---2-----------2---|0-----------0-------------------|
|--------------------------------|----------------3-----------3---|

| | | | | | | |
|--------------------------------|--------------------------------|
|3-----------3---2-----------2---|0-----------0-------------------|
|--------------------------------|----------------3-----------3---|
|--------------------------------|--------------------------------|

| | | | | | | |
|0-----------0-------------------|--------------------------------|
|----------------3-----------3---|2-----------2---0-----------0---|
|--------------------------------|--------------------------------|
|--------------------------------|--------------------------------|

| | | | | | | |
|--------------------------------|--------------------------------|
|--------------------------------|--------------------------------|
|3-----------3---2-----------2---|0-----------0-------------------|
|--------------------------------|----------------3-----------3---|

| | | | | | | |
|--------------------------------|----------------0---------------|
|3-----------3---2-----------2---|0-----------0-------------------|
|--------------------------------|--------------------------------|
|--------------------------------|----------------------3-----3---|

| | | | | | | |
|--------------------------------|--------------------------------|
|--------------------------------|--------------------------------|
|3-----------3---2-----------2---|0-----------0-------------------|
|--------------------------------|----------------3-----------3---|

| | | | | | | |
|--------------------------------|------------------------0-------|
|------------------------3-------|--------------------------------|
|3-----------3-------------------|3-----------3-------------------|
|----------------1---------------|----------------3-----------3---|

| | | | | | | |
|--------------------------------|--------------------------------|
|--------------------------------|--------------------------------|
|3-----------3---2-----------2---|0-----------0-------------------|
|--------------------------------|----------------3-----------3---|

| | | | | | | |
|--------------------------------|--------------------------------|
|3-----------3---2-----------2---|0-----------0-------------------|
|--------------------------------|----------------3-----------3---|
|--------------------------------|--------------------------------|

| | | | | | | |
|0-----------0-------------------|--------------------------------|
|----------------3-----------3---|2-----------2---0-----------0---|
|--------------------------------|--------------------------------|
|--------------------------------|--------------------------------|

| | | | | | | |
|--------------------------------|--------0-----------------------|
|----------------3-----------3---|--------------------------------|
|3-----------3-------------------|--------------------------------|
|--------------------------------|3---------------3-----3-----3---|

| | | | | | | |
|--------------------------------|--------------------------------|
|--------------------------------|--------------------------------|
|3-----------3---2-----------2---|0-----------0-------------------|
|--------------------------------|----------------3-----------3---|

| | | | | | | |
|--------------------------------|--------------------------------|
|3-----------3---2-----------2---|0-----------0-------------------|
|--------------------------------|----------------3-----------3---|
|--------------------------------|--------------------------------|

| | | | | | | |
|0-----------0-------------------|--------------------------------|
|----------------3-----------3---|2-----------2---0-----------0---|
|--------------------------------|--------------------------------|
|--------------------------------|--------------------------------|

| | | | | | | |
|--------------------------------|--------------------------------|
|--------------------------------|--------------------------------|
|3-----------3-------------------|3-----------3-------------------|
|----------------1-----------1---|----------------1-----------1---|

| | | | | | | |
|--------------------------------|--------------------------------|
|--------3-----------------------|--------------------------------|
|--------------------------------|------------1---3-------1-------|
|1-------------1-1-----------1-3-|4-------------------------------|

| | | | | | | |
|--------------------------------|--------------------------------|
|--------------------------------|--------------------------------|
|3---------------3---------------|3-------------------------------|
|------------------------3-------|--------------------------------|

| | | | | | | |
|--------------------------------|--------------------------------|
|--------------------------------|--------------------------------|
|3-------------------------------|--------------------------------|
|--------------------------------|--------------------------------|

Тональность:

Это должно быть в ТОП-листе! - Топ-лист композиций



Назад
Рекомендуем посмотреть другие песни исполнителя «Procol Harum»:

  • Комменты Fb ()
  • Комменты ВК



Добавить в Избранное Браузера
Сохранить здесь Очистить


x

0


+
-

+
-

-

Авторизация





Зарегистрироваться

M

Дата и время

  • 12:04:16
     

Социальные ссылки


Наши приложения

  • Muzbank App Play Market
  • Muzbank Amazon App