MUZBANK



A MOST COMPLETE BANK OF MUSIC INFORMATION

МУЗЫКАЛЬНО-ИНФОРМАЦИОННЫЙ БАНК







    PPrologos • Чужое солнце (аккорды и текст - chords & lyrics)


    484

    Print

    Видео «Чужое солнце (Prologos)»

    Видео клипы к песне подбираются автоматически сайтом youtube. Возможны некоторые несоответствия клипов песне.

    ↑ Спрятать рекламу ↑





    Hm            A     F#                 G    Em
    Черные, белые птицы прилетели из снов моих 
    Возможно мне только сниться, что я еще жив, 
    
    Я хочу согреться светом новой звезды, 
    Но это чужое солнце, это - чужие мечты...
    
    [Solo]
                                      (x4)
    -------------------------------------
    --15-(15)------------15--------------
    -----------14--14--------14--14------
    -------------------------------------
    -------------------------------------
    -------------------------------------
    
    
    
    -------------17--17------------------
    ---15--15----------------------------
    -------------------------------------
    -------------------------------------
    -------------------------------------
    -------------------------------------
    

    Тональность:

    Это должно быть в ТОП-листе! - Топ-лист композиций



    Назад
    Рекомендуем посмотреть другие песни исполнителя «Prologos»:

    • Комменты Fb ()
    • Комменты ВК



    Добавить в Избранное Браузера
    Сохранить здесь Очистить


    x

    0


    +
    -

    +
    -

    -

    Авторизация





    Зарегистрироваться

    M

    Дата и время

    • 05:08:19
       

    Социальные ссылки


    Наши приложения

    • Muzbank App Play Market
    • Muzbank Amazon App