MUZBANK


МУЗЫКАЛЬНО-ИНФОРМАЦИОННЫЙ БАНК





ППятница • Весна 3 (аккорды и текст - chords & lyrics)


758

Print

Видео «Весна 3 (Пятница)»

Видео клипы к песне подбираются автоматически сайтом youtube. Возможны некоторые несоответствия клипов песне.

↑ Спрятать рекламу ↑





    Cm         D          Gm         D#
E|--------------------------------6---------------|
B|---7----------------------------8---------------|
G|--5-5-5~~-5--7-7-7~~----3-3-3~~-3--7-7-7~~---7--|
D|--5-5-5~~-5--7-7-7~~-5--0-0-0~~-0--5-5-5~~------|
A|--0-0-0~~-0--5-5-5~~-5--1-1-1~~-1--6-6-6~~-6----|
E|------------------------------------------------|

 Cm
Улица длится, длится, не спится,
 D
Засыпаю - не могу остановиться,
 Gm
Зажигаю, наблюдаю за собой там,
 D#
Со стороны. Раны

 Cm
Не зажили, долго кружили.
 D
Кто? Снова тени ожили.
 Gm
Были, любили, забыли, оставили
 D#
Там.

 Cm
Я не вернусь и снова не будет
 D
Весны.
 Gm
Я поднимусь, я уже не боюсь
 D#
Высоты-ы-ы-ы.

Cm
Я не хочу чтобы ты,
 D
Я не хочу чтобы я,
 Gm
Часами, словами, весами грузили
 D#
Себя.

 Cm
Ту-ту-ту

Ту-ту-ту
 Gm
Ту-ту-ту
 D#
Ту-ту-ту

 Cm
Ту-ту-ту
 D
Ту-ту-ту

 Cm
Ночь наступает на пятки,
 D
Звуки играют в прятки.
 Gm
Сладкие взятки прячуться их
 D#
Не достать, до них не добраться

 Cm                             D
Можно смеяться, не приземляться.
 Gm                             D#
Трудно понять, легко догадаться.

 Cm
Нет не отнять того что бы было,
 D
Опять догонять, время не ждать
 Gm
Можно сгореть, не успеть, не допеть,
 D#
Не догнать, не узнать, потеряться.

 Cm
Можно смеяться, не приземляться.
 Gm                            D#
Трудно понять, легко догадаться.

 Cm
Я не вернусь и снова не будет
 D
Весны.
 Gm
Я поднимусь, я уже не боюсь
 D#
Высоты-ы-ы-ы.

 Cm
Я не хочу чтобы ты,
 D
Я не хочу чтобы я,
 Gm
Часами, словами, весами грузили
 D#
Себя.

 Cm
Ту-ту-ту
 D
Ту-ту-ту
 Gm
Ту-ту-ту
 D#
Ту-ту-ту

 Cm
Ту-ту-ту
 D
Ту-ту-ту

 Cm
На ответы у меня есть вопросы,
 D
Папиросы распросы, спроси меня:
 Gm
Где ты? - Нигде, я иду никуда.
 D#
Да, горят провода, это

 Cm
Правда. Сухая вода,
 D
Бесконечная нота. Спроси меня:
 Gm
Кто ты? - Никто, но я здесь
 D#
Навсегда.

 Cm
Я же вернусь и снова наступит
 D
Весна.
 Gm
Когда я проснусь, я узнаю -
 D#
Тебе не до сна-а-а-а

 Cm
Я так хочу чтобы ты,
 D
Я так хочу чтобы я,
 Gm
Дышали одной тишиной и не видели
 D#
Дня.

 Cm
Я так хочу чтобы ты,
 D
Я так хочу чтобы я,
 Gm
Ту-ту-ту
 D#
Ту-ту-ту

   Cm                D
E|--------------------------------------|
B|--------------------------------------|
G|---5---5---5--5------7---7---7--7-----|
D|---5---5---5--5------7---7---7--7-----|
A|-0-------0---------5-------5----------|
E|-----0-------0---------5-------5------|

   Gm                D#
E|--------------------------------------|
B|--------------------------------------|
G|---3---3---3--3------8---8---8--8-----|
D|---5---5---5--5------8---8---8--8-----|
A|-----3-------3-----6-------6----------|
E|-3-------3-------------6-------6------|

Cm D
Дышали одной тишиной и не видели
 Gm      D#
Дня-а-а. А-а-а

 Cm
Я так хочу чтобы ты,
 D
Я так хочу чтобы я,
 Gm
Дышали одной тишиной и не видели
 D#
Дня-а-а-а-а-а.

     С#               D
E|--------------------------------------|
B|--------------------------------------|
G|-7---6---6---6--6-7---8---8---8--8----|
D|-7---6---6---6--6-7---8---8---8--8----|
A|---4-------4--------6---6-------------|
E|-------4-------4------------6---6-----|

 C#  D
А-а-а. Я же вернусь и снова наступит

 C#        D
Весна. А-а-а.

 C#
Я же вернусь и снова наступит
 D          C#
Весна-а. А-а-а. А-а-а.

 C
Я же вернусь и снова наступит
(D)     C#    D
Весна-а. А-а-а.

Тональность:

Это должно быть в ТОП-листе! - Топ-лист композиций



Назад
Рекомендуем посмотреть другие песни исполнителя «Пятница»:

  • Комменты Fb ()
  • Комменты ВК



Добавить в Избранное Браузера
Сохранить здесь Очистить


x

0


+
-

+
-

-

Авторизация





Зарегистрироваться

M

Дата и время

  • 15:51:18
     

Социальные ссылки


Наши приложения

  • Muzbank App Play Market
  • Muzbank Amazon App