MUZBANK


МУЗЫКАЛЬНО-ИНФОРМАЦИОННЫЙ БАНК





QQueen • Let Me Entertain You (аккорды и текст - chords & lyrics)


521

Print

Видео «Let Me Entertain You (Queen)»

Видео клипы к песне подбираются автоматически сайтом youtube. Возможны некоторые несоответствия клипов песне.

↑ Спрятать рекламу ↑






two guitars (both in the middle)
E|----------------------------------------|
B|----------------------------------------|
G|-4---4p0---0-4---4-----0-4---4-*---0-4--|
D|-2---2p0-----2---2p0-----2---2p0-----2--|
A|---------2-----------2p0---------2------|
E|----------------------------------------|

E|------------------------------------|
B|------------------------------------|
G|--4-----0-4---4------(0)-(0)--------|
D|--2p0---0-2---2p0---0-2---2p0-----5-|
A|------2p0---------2p0---------2p0-5-|
E|----------------------------------3-|

guitars turn panned
E|--------------------------------------------------|
B|-----------------------------------3---3-3-3-3----|
G|-4-4---4-4---4-4-------0-4-4---4---0---0-0-0-0-4--|
D|-2-2p0-2-2p0-2-2p0-------2-2p0-2p0-------------2--|
A|--------------------2-----------------------------|
E|--------------------------------------------------|

E|----------------------------------------|
B|----------------------------------------|
G|----4-4---4-4-2-----0-------------------|
D|--0-2-2p0-2-2-0-----0-2p0---------------|
A|------------------2-------2p0-----------|
E|------------------------------3-->>>>>>-3--2-|
E|------------------------------------------------------|

riff C:
E|----------------------------------------------|
B|----------------------------------------------|
G|----------------------------------------------|
D|--------0--2-4---5--4--4-----9----------------|
A|-2---3---------------2--2-----7---------------|
E|------------------------------0-------

Тональность:

Это должно быть в ТОП-листе! - Топ-лист композиций



Назад
Рекомендуем посмотреть другие песни исполнителя «Queen»:

  • Комменты Fb ()
  • Комменты ВК



Добавить в Избранное Браузера
Сохранить здесь Очистить


x

0


+
-

+
-

-

Авторизация





Зарегистрироваться

M

Дата и время

  • 18:28:58
     

Социальные ссылки


Наши приложения

  • Muzbank App Play Market
  • Muzbank Amazon App