MUZBANK


МУЗЫКАЛЬНО-ИНФОРМАЦИОННЫЙ БАНК





RRadioHead • You Never Wash Up After Yourself (аккорды и текст - chords & lyrics)


665

Print

Видео «You Never Wash Up After Yourself (RadioHead)»

Видео клипы к песне подбираются автоматически сайтом youtube. Возможны некоторые несоответствия клипов песне.

↑ Спрятать рекламу ↑






E|------1-----------1-----------1-----------1-----|
B|----3---3-------3---3-------3---3-------3---3---|
G|--2-------2---2-------2---0-------0---0-------0-|
D|0-----------------------------------------------|
A|------------3-----------2-----------------------|
E|------------------------------------3-----------|

E|------0-----------0-----------0-----------0-----|
B|----1---1-------1---1-------1---1-------1---1---|
G|--0-------0---0-------0---2-------2---2-------0-|
D|------------------------------------------------|
A|3-----------2-----------0-----------0-----------|
E|------------------------------------------------|

E|------0-----------3-----------0-----------0-----|
B|----1---1-------3---3-------0---0-------1---1---|
G|--2-------2---0-------0---1-------1---2-------2-|
D|------------------------------------------------|
A|-----------------(2)----------------0-----------|
E|1-----------3-----------4-----------------------|

E|------3-----------3-----------3-----------3-------|
B|----1---1-------3---3-------1---1-------1---1-----|
G|--0-------0---0-------0---0-------0---0-------0---|
D|--------------------------------------------------|
A|3----------------(2)----3-----------3-----------3-|
E|------------3-------------------------------------|

I must get out once in a while
Everything is starting to die
The dust settles, the worms dig
Spiders crawl over the bed

I must get out once in a while
I eat all day and now I'm fat
Yesterday's meal is hugging the plates
You never wash up after yourself

Тональность:

Это должно быть в ТОП-листе! - Топ-лист композиций



Назад
Рекомендуем посмотреть другие песни исполнителя «RadioHead»:

  • Комменты Fb ()
  • Комменты ВК



Добавить в Избранное Браузера
Сохранить здесь Очистить


x

0


+
-

+
-

-

Авторизация





Зарегистрироваться

M

Дата и время

  • 00:21:45
     

Социальные ссылки


Наши приложения

  • Muzbank App Play Market
  • Muzbank Amazon App