MUZBANK


МУЗЫКАЛЬНО-ИНФОРМАЦИОННЫЙ БАНК





RRainbow • Next Time (аккорды и текст - chords & lyrics)


494

Print

Видео «Next Time (Rainbow)»

Видео клипы к песне подбираются автоматически сайтом youtube. Возможны некоторые несоответствия клипов песне.

↑ Спрятать рекламу ↑





E|-------|-------------------------|-------------------------|
B|-------|-------------------------|-------------------------|
G|-----2-|-7s====5-----------4s==5-|-4s3---2---------------2-|
D|-2-----|-------------------------|-------------------2-----|
A|-------|-------------------------|-------------------------|
E|-------|-------------------------|-------------------------|

E|-------------------------|-----------------------------|
B|-------------------------|---------------------------5-|
G|-7-----5-----------4s==5-|-4s5s4---(4)-----------5-----|
D|-------------------------|---------------------5-------|
A|-------------------------|-----------------------------|
E|-------------------------|-----------------------------|

E|-----------------------|---------------------------|
B|-6s====5---------------|---------------------------|
G|---------------------5-|-9s====7-------------9---7-|
D|-------------------5---|---------------------------|
A|-----------------------|---------------------------|
E|-----------------------|---------------------------|

E|-------------|-------------|---------------------------------|
B|-------------|-------------|-------------3---5-6-------8---6-|
G|-7s5--5--4s3-|-2-(2)---2-5-|-7-----(7)-----------------------|
D|-------------|-------------|---------------------------------|
A|-------------|-------------|---------------------------------|
E|-------------|-------------|---------------------------------|

E|------------------------------------|------------------------|
B|-5s6s5-----------(5)-----10-12---13-|-12---------------13s12-|
G|-----------------------9------------|------------------------|
D|------------------------------------|------------------------|
A|------------------------------------|------------------------|
E|------------------------------------|------------------------|

E|----------------------|-------------------------|
B|-12s====10------------|-------------------------|
G|--------------------2-|-7-----5-----------4---5-|
D|------------------2---|-------------------------|
A|----------------------|-------------------------|
E|----------------------|-------------------------|

E|-----------------|--------------------|----------------------|
B|-----------------|--------------------|--------------------5-|
G|-4s3---2-------2-|-7-----5------4---5-|-4s5s4---(4)------5---|
D|-----------2-----|--------------------|----------------5-----|
A|-----------------|--------------------|----------------------|
E|-----------------|--------------------|----------------------|

E|-----------------------------|-------------------------------|
B|-6s5s==6s==5s==6s==5s6-----5-|-------------------------------|
G|-----------------------------|-9-9---9---9s7---9s7-----(7)-9-|
D|-----------------------------|-------------------------------|
A|-----------------------------|-------------------------------|
E|-----------------------------|-------------------------------|

E|----------------------------|--------------------------------|
B|----------------------------|-----------------------------13-|
G|-(9)--7-5-5-(5)---(5)-5-7-9-|-10---(10)---10s==12-14---14----|
D|----------------------------|--------------------------------|
A|----------------------------|--------------------------------|
E|----------------------------|--------------------------------|

E|--------------------------------------|
B|-15-----15---13-15-(15)---------15-15-|
G|--------------------------------------|
D|--------------------------------------|
A|--------------------------------------|
E|--------------------------------------|

E|-------------------------------------|-----------------------|
B|-15-13-13-13s==12---12-----10-0-12-0-|-13s12---(12)-12-13s12-|
G|-------------------------9-----------|-----------------------|
D|-------------------------------------|-----------------------|
A|-------------------------------------|-----------------------|
E|-------------------------------------|-----------------------|

E|----------------------|------------|------------|------------|
B|-12s====10------------|------------|------------|------------|
G|----------------------|------------|------------|--------6-7-|
D|----------------------|------------|----------5-|-7----7-----|
A|----------------------|-5------5-7-|-8------8---|------------|
E|----------------------|------------|------------|------------|

E|-------------------------------------------|--------|--------|
B|-------------------------------------------|--------|-----10-|
G|-7-6h7p6h7p6h7p6h7p6h7p6h7p6h7p6h7p6h7s5-7-|--------|--------|
D|-------------------------------------------|--------|---7----|
A|-------------------------------------------|-5--5-7-|-8------|
E|-------------------------------------------|--------|--------|

E|-9-10-9-10-9-10-9h10p9h10p9h10p9h10p9h10p9h10p9h10p9h10-|----|
B|--------------------------------------------------------|-10-|
G|--------------------------------------------------------|----|
D|--------------------------------------------------------|----|
A|--------------------------------------------------------|----|
E|--------------------------------------------------------|----|

E|-----------------|-------------|----------------|---------|
B|-----------------|-------------|----------------|---------|
G|-----------------|-------------|-5--2-----------|-4s==2p0-|
D|-8-7-5-----------|-5h7p5--4----|------4-2-1-2-3-|---------|
A|-------7-5s4-5-7-|--------5----|----------------|---------|
E|-----------------|-------------|----------------|---------|

E|------------|----------|------------|--------|
B|-6----6--5--|-3--------|------------|--------|
G|-7----7--5--|-4--------|------------|--------|
D|-9----9--7--|-6--------|-3----3--2--|-0------|
A|------------|----------|------------|------3-|
E|------------|----------|------------|--------|

E|----------|---------------|-----------|---------------|
B|----------|---------------|-----------|---------------|
G|----------|-------------7-|-7s===5p===|=0-------5-7-5-|
D|----------|-----------7---|-----------|-------7-------|
A|----------|---------7-----|-----------|-----7---------|
E|-0--------|-0-------------|-----------|---------------|

E|------------|-----------------------|
B|------------|-----------------------|
G|-7s5s7p=====|=0-------7-7p5-7p5---5-|
D|------------|-------7-----------7---|
A|------------|-----7-----------------|
E|------------|-----------------------|

E|-------------------------------5----|
B|-----------------------------5---10-|
G|-5s4---4-5s4---5-7p5---5-7-8--------|
D|-----7-------7-------7--------------|
A|------------------------------------|
E|------------------------------------|

E|---------7----8p7----8p7------------------------|
B|-(10)-10---10-----10-----10-8p7s5-8p7p5---------|
G|----------------------------------------8p7p5-7-|
D|------------------------------------------------|
A|------------------------------------------------|
E|------------------------------------------------|

E|------------------|-----------------|
B|------------------|-----------------|
G|-7----(7)-7-7-7-7-|-(7)-----5-7--7--|
D|------------------|-----------------|
A|------------------|-----------------|
E|------------------|-----------------|

E|---------------------------------------|
B|---------------------------------------|
G|-7h9p7h9p7h9p7h9p7h9p7h9p7s5-7---5h7p5-|
D|---------------------------------------|
A|---------------------------------------|
E|---------------------------------------|

E|-------------------8-10-8h10p8-12-|
B|-----------------8----------------|
G|-(5)---(5)-(5)-9------------------|
D|----------------------------------|
A|----------------------------------|
E|----------------------------------|

E|-(12)--10----------------------|----------19-19--17---16-|
B|----------13p12p10s9--10-9-----|-------17----------------|
G|---------------------------9---|---17--------------------|
D|-------------------------------|-------------------------|
A|-------------------------------|-------------------------|
E|-------------------------------|-------------------------|

E|-17------8-10-12-|-(12)--10p8-----------8-|
B|-------10---------|------------10-(10)----|
G|------------------|-----------------------|
D|------------------|-----------------------|
A|------------------|-----------------------|
E|------------------|-----------------------|

E|---------------------8-12-|-(12)---12---10p8------|
B|-10---10-10--(10)-10------|------------------10p8-|
G|--------------------------|-----------------------|
D|--------------------------|-----------------------|
A|--------------------------|-----------------------|
E|--------------------------|-----------------------|

E|----------8-10--8--|-10----x-12-13-12-|
B|-10----10----------|------------------|
G|-------------------|------------------|
D|-------------------|------------------|
A|-------------------|------------------|
E|-------------------|------------------|

E|-17--17--17s15p(15)p12----|-----------------------|
B|-----------------------15-|-17---17-(17)-15-15-13-|
G|--------------------------|-----------------------|
D|--------------------------|-----------------------|
A|--------------------------|-----------------------|
E|--------------------------|-----------------------|

E|-----------------|------------12----13-12----13-|
B|-15----(15)---17-|-15----(15)----15-------15----|
G|-----------------|------------------------------|
D|-----------------|------------------------------|
A|-----------------|------------------------------|
E|-----------------|------------------------------|

E|-12-------------------------------|
B|----15-13p12----12-13p12----------|
G|-------------14----------14p13-14-|
D|----------------------------------|
A|----------------------------------|
E|----------------------------------|

E|-12-10h12p10-8-10-9h10p9h10----|
B|----------------------------10-|
G|-------------------------------|
D|-------------------------------|
A|-------------------------------|
E|-------------------------------|

E|--13-12-13-17s==15-|---5-7-8-7h8p7h8-5---------|
B|-------------------|-------------------10-(10)-|
G|-------------------|---------------------------|
D|-------------------|---------------------------|
A|-------------------|---------------------------|
E|-------------------|---------------------------|

E|-------------------------|--------------------------|------*-|
B|-6-5h6p5-----------------|-6-5----------------------|------*-|
G|---------7-5--4s5s4-(4)--|-----7-5-9-7--------------|------*-|
D|-------------------------|-------------7-9-10s9-7s5-|-7----*-|
A|-------------------------|--------------------------|------*-|
E|-------------------------|--------------------------|------*-|

Тональность:

Это должно быть в ТОП-листе! - Топ-лист композиций



Назад
Рекомендуем посмотреть другие песни исполнителя «Rainbow»:

  • Комменты Fb ()
  • Комменты ВК



Добавить в Избранное Браузера
Сохранить здесь Очистить


x

0


+
-

+
-

-

Авторизация





Зарегистрироваться

M

Дата и время

  • 20:57:59
     

Социальные ссылки


Наши приложения

  • Muzbank App Play Market
  • Muzbank Amazon App