MUZBANK


МУЗЫКАЛЬНО-ИНФОРМАЦИОННЫЙ БАНК





RRainbow • Rainbow (аккорды и текст - chords & lyrics)


1190

Print

Видео «Rainbow (Rainbow)»

Видео клипы к песне подбираются автоматически сайтом youtube. Возможны некоторые несоответствия клипов песне.

↑ Спрятать рекламу ↑





Electric Guitar 1

E|------------------------|--------0----------0---------|
B|------------------------|--------0--------0---0-------|
G|------------------------|--------0------4-------4p2-0-|
D|----------0-2-----0-----|--------0--------------------|
A|--------------0-2-------|-----2-----------------------|
E|---------------------3/-|--0--------------------------|

E|-----------3h----------------|-------5--------------------|
B|-----------3-5p3----0h1p0----|-------5--------------------|
G|--0--------------5--------0--|-------5--------5-7-5-7-5-7-|
D|-----------------------------|--7-------------5-7-5-7-5-7-|
A|-----------------------------|------------5h7-------------|
E|-----------------------------|----------------------------|

E|--------7----------0-------|--------------------------|
B|--------8--------0---0---0-|--------------------------|
G|--------7------4-------4---|----------------5-7-5-----|
D|--------9------------------|-------------5--5h7-5-----|
A|--------7------------------|--3------5-7-----------7--|
E|--0--7---------------------|--------------------------|

E|--5--8--10--8--10-8-5--5-|------------------5-7-5-7-|-----|
B|--5--8--10--8--10-8-5--5-|------------------5-7-5-7-|--8--|
G|-------------------------|-7-9-7-9-7-9-7------------|--9--|
D|-------------------------|-7-9-7-9-7-9--------------|--10-|
A|-------------------------|--------------------------|-----|
E|-------------------------|--------------------------|-----|

E|-------------------|----------3-----------------|------------|
B|----------3--------|----------3h5p3----0h1p0----|------------|
G|----------0--------|----------------5--------0--|------------|
D|----------2--------|----------------------------|----------2-|
A|----------2--------|----------------------------|------------|
E|----------0--------|----------------------------|------------|

E|-----------------------|-------------|
B|-----------------------|--5--------7-|
G|------7-9-7-9-7--------|--5--------7-|
D|------7-9-7-9-7--------|--5--------7-|
A|-----------------------|-------------|
E|-----------------------|-------------|

E|----------3--------------|-----------|-----------------------|
B|----------3h5p3----0-----|-----------|-----------------------|
G|----------------5-----0--|--2--------|----------7-9-7-9-7----|
D|-------------------------|-----------|----------7-9-7-9-7----|
A|-------------------------|-----------|-----------------------|
E|-------------------------|-----------|-----------------------|

E|------------12-|
B|------------12-|
G|--7-9-------12-|
D|--7-9----------|
A|---------------|
E|---------------|

E|------------------0------|---------------|
B|------8-7-8-7-8-7--------|------5--8--10-|
G|-------------------------|---------------|
D|-------------------------|---------------|
A|-------------------------|---------------|
E|-------------------------|---------------|

E|------------3--|----------------------|----------------------|
B|---------3-----|--5----------3--------|----------------------|
G|------4--------|----------------4-2---|--4----------4--2--0--|
D|---------------|----------------------|----------------------|
A|---------------|----------------------|----------------------|
E|---------------|----------------------|----------------------|

E|------------------|-------------------3--|-------------------|
B|------------------|----------------3-----|--5------3---------|
G|--2---4-2-4-2-4-2-|--4-2-0---------------|------------4-2-0--|
D|------------------|---------2/-----------|-------------------|
A|------------------|----------------------|-------------------|
E|------------------|----------------------|-------------------|

E|------------------|-------5-----7--5--3--|-------------------|
B|------------------|----------------------|--5----------5--7--|
G|--4------4--2--0--|--2/------------------|-------------------|
D|------------------|----------------------|-------------------|
A|------------------|----------------------|-------------------|
E|------------------|----------------------|-------------------|

E|--------5--7--10--|--12~-----14--15--17--|--12---7~------10--|
B|--8~--------------|----------------------|-----------10------|
G|------------------|----------------------|-------------------|
D|------------------|----------------------|-------------------|
A|------------------|----------------------|-------------------|
E|------------------|----------------------|-------------------|

E|--12~-----------|
B|------------12~-|
G|----------------|
D|----------------|
A|----------------|
E|----------------|

E|------------------0------|---------------|
B|------8-7-8-7-8-7--------|------5--8--10-|
G|-------------------------|---------------|
D|-------------------------|---------------|
A|-------------------------|---------------|
E|-------------------------|---------------|

E|------------------------|
B|--5--------5--7--8--10--|
G|------------------------|
D|------------------------|
A|------------------------|
E|------------------------|

E|------------|
B|--12----10~-|
G|------------|
D|------------|
A|------------|
E|------------|

E|------------------------|-----------|
B|--5--------5--7--8--10--|--12----5~-|
G|------------------------|-----------|
D|------------------------|-----------|
A|------------------------|-----------|
E|------------------------|-----------|

E|------------------|------------------------|-----------|
B|------------------|--5--------5--7--8--10--|--12----5~-|
G|------------------|------------------------|-----------|
D|------------------|------------------------|-----------|
A|------------------|------------------------|-----------|
E|------------------|------------------------|-----------|

E|-----------------|------------------|------------------------|
B|--8-----7--5--3--|--5----------3----|--5--------5--7--8--10--|
G|-----------------|------------------|------------------------|
D|-----------------|------------------|------------------------|
A|-----------------|------------------|------------------------|
E|-----------------|------------------|------------------------|

E|--------------------|----------------------|-----------------|
B|--12----5----8--10--|--10--12------10--12--|--8~--------6----|
G|--------------------|----------------------|-----------------|
D|--------------------|----------------------|-----------------|
A|--------------------|----------------------|-----------------|
E|--------------------|----------------------|-----------------|

E|-------------------|-------------7--10-|-12----12~----14--15-|
B|--5---5--7--8--10--|-12----5-----------|---------------------|
G|-------------------|-------------------|---------------------|
D|-------------------|-------------------|---------------------|
A|-------------------|-------------------|---------------------|
E|-------------------|-------------------|---------------------|

E|--15~-------14--15--14-15-14-15-|--0----------------------|
B|--------------------------------|--17--------5--7--8--10--|
G|--------------------------------|-------------------------|
D|--------------------------------|-------------------------|
A|--------------------------------|-------------------------|
E|--------------------------------|-------------------------|

E|----------|-------------------------|--8--------8--7--8--10--|
B|--12----5-|--12--------11--8--7--8--|------------------------|
G|----------|-------------------------|------------------------|
D|----------|-------------------------|------------------------|
A|----------|-------------------------|------------------------|
E|----------|-------------------------|------------------------|

E|--0-------------------|-------------|--12------14--15~-------|
B|--17-----5--7--8--10--|--12----5----|------------------------|
G|----------------------|-------------|------------------------|
D|----------------------|-------------|------------------------|
A|----------------------|-------------|------------------------|
E|----------------------|-------------|------------------------|

E|--15~---13--14--15--17--|--0----------------------|----------|
B|------------------------|--17--------5--7--8--10--|--12----5-|
G|------------------------|-------------------------|----------|
D|------------------------|-------------------------|----------|
A|------------------------|-------------------------|----------|
E|------------------------|-------------------------|----------|

E|--12----10--8--7--5--7-|-8~-----7--5--3--5-|-----------------|
B|-----------------------|-------------------|-5--5--7--8--10--|
G|-----------------------|-------------------|-----------------|
D|-----------------------|-------------------|-----------------|
A|-----------------------|-------------------|-----------------|
E|-----------------------|-------------------|-----------------|

E|---------|--12~-----11--12--11--12--11-|-8-------7--8--10----|
B|-12----5-|-----------------------------|---------------------|
G|---------|-----------------------------|---------------------|
D|---------|-----------------------------|---------------------|
A|---------|-----------------------------|---------------------|
E|---------|-----------------------------|---------------------|

E|-0-------------------|------------------12----|-15----15-----|
B|-12------5--7--8--10-|-12----5------12-----12-|------------4-|
G|---------------------|------------------------|--------------|
D|---------------------|------------------------|--------------|
A|---------------------|------------------------|--------------|
E|---------------------|------------------------|--------------|

E|-15-14-15-17-15-17-19-17-15-17-15-14-|-0---------------------|
B|-------------------------------------|-20-------5--7--8--10--|
G|-------------------------------------|-----------------------|
D|-------------------------------------|-----------------------|
A|-------------------------------------|-----------------------|
E|-------------------------------------|-----------------------|

E|---------|-14----12--10--8--7--5--7--|--8~-------8--7--5--7--|
B|--12---5-|---------------------------|-----------------------|
G|---------|---------------------------|-----------------------|
D|---------|---------------------------|-----------------------|
A|---------|---------------------------|-----------------------|
E|---------|---------------------------|-----------------------|

E|----|
B|--5-|
G|----|
D|----|
A|----|
E|----|

Тональность:

Это должно быть в ТОП-листе! - Топ-лист композиций



Назад
Рекомендуем посмотреть другие песни исполнителя «Rainbow»:

  • Комменты Fb ()
  • Комменты ВК



Добавить в Избранное Браузера
Сохранить здесь Очистить


x

0


+
-

+
-

-

Авторизация





Зарегистрироваться

M

Дата и время

  • 10:41:13
     

Социальные ссылки


Наши приложения

  • Muzbank App Play Market
  • Muzbank Amazon App