MUZBANK


МУЗЫКАЛЬНО-ИНФОРМАЦИОННЫЙ БАНК





RRammstein • Benzin (аккорды и текст - chords & lyrics)


2484

Print

Видео «Benzin (Rammstein)»

Видео клипы к песне подбираются автоматически сайтом youtube. Возможны некоторые несоответствия клипов песне.

↑ Спрятать рекламу ↑





Ich brauche Zeit kein Heroin 
Kein Alkohol kein Nikotin 
Brauch keine Hilfe 
Kein Koffein 
Doch Dynamit und Terpentin 
Ich brauche Öl für Gasolin 
Explosiv wie Kerosin 
Mit viel Oktan und frei von Blei 
Einen Kraftstoff wie 

Benzin 

Brauch keinen Freund 
Kein Kokain 
Brauch weder Arzt noch Medizin 
Brauch keine Frau nur Vaselin 
Etwas Nitroglyzerin 
Ich brauche Geld für Gasolin 
Explosiv wie Kerosin 
Mit viel Oktan und frei von Blei 
Einen Kraftstoff wie 

Benzin 

Gib mir Benzin 

Es fließt durch meine Venen 
Es schläft in meinen Tränen 
Es läuft mir aus den Ohren 
Herz und Nieren sind Motoren 

Benzin 

Willst du dich von etwas trennen 
dann musst du es verbrennen 
Willst du es nie wieder sehen 
lass es schwimmen in Benzin 

Benzin 
Ich brauch Benzin 
Benzin 

Gib mir Benzin


Guitar tab:

/Intro/
D|------------------------------------------|
A|------------------------------------------|
F|------------------------------------------|
C|------------------------------------------|
G|--12------11---------12------11----12/15--|
C|------------------------------------------|

/Clean riff/ (Intro and verses)
D|---------------------------------------------------|
A|---------------------------------------------------|
F|*--------------------------------------------------|
C|*--------------------------------------------------|
G|--12-12-12-12-12-12-12-11-11-11-11-11-11-11-11-11--|
C|--0--0--0--0--0--0--0--0--0--0--0--0--0--0--0--0---|

D|---------------------------------------------------|
A|---------------------------------------------------|
F|--------------------------------------------------*|
C|--------------------------------------------------*|
G|--12-12-12-12-12-12-12-11-11-11-11-11-12/15-15-15--|
C|--0--0--0--0--0--0--0--0--0--0--0--0--0--0--0--0---|


/Main riff/ (Several different parts are overdubbed)

/Riff 1/
D|---------------------------------------------------|
A|---------------------------------------------------|
F|*--------------------------------------------------|
C|*--------------------------------------------------|
G|--12-12-12-12-12-12-12-11-11-11-11-11-11-11-11-11--|
C|--0--0--0--0--0--0--0--0--0--0--0--0--0--0--0--0---|

D|---------------------------------------------------|
A|---------------------------------------------------|
F|--------------------------------------------------*|
C|--------------------------------------------------*|
G|--12-12-12-12-12-12-12-11-11-11-11-11-12/15-15-15--|
C|--0--0--0--0--0--0--0--0--0--0--0--0--0--0--0--0---|

/Riff 2/ (this may be played in different octaves):
D|--------------------------------------------------|
A|--------------------------------------------------|
F|*-7--7--7--7--7--7--7--7--7--7--7--7--7--7--7--7--|
C|*-7--7--7--7--7--7--7--7--7--7--7--7--7--7--7--7--|
G|--5--5--5--5--5--5--5--5--5--5--5--5--5--5--5--5--|
C|--------------------------------------------------|

D|--------------------------------------------------|
A|--------------------------------------------------|
F|--7--7--7--7--7--7--7--7--7--7--7--7--7--7--7--7-*|
C|--7--7--7--7--7--7--7--7--7--7--7--7--7--7--7--7-*|
G|--5--5--5--5--5--5--5--5--5--5--5--5--5--5--5--5--|
C|--------------------------------------------------|


/Chorus/
D|-------------------------------------------------------------------|
A|-------------------------------------------------------------------|
F|-------------------------------------------------------------------|
C|--0---------------1---------------0---------------1-------3--------|
G|--0---------------1---------------0-------0--0--0-1-------3--------|
C|--0---------------1---------------0-------0--0--0-1-------3--------|
   pm                                       .  .  .

D|-------------------------------------------------------------------|
A|-------------------------------------------------------------------|
F|-------------------------------------------------------------------|
C|--0---------------1---------------0---------------1-------3--------|
G|--0---------------1---------------0---------------1-------3--------|
C|--0---------------1---------------0---------------1-------3--------|


/Bridge (& intro)/
D|-------------------------------------------------------------------|
A|-------------------------------------------------------------------|
F|*-----------------------------------------------------------------*|
C|*-0---------------1---------------0---------------1-------3-------*|x2
G|--0---------------1---------------0---------------1-------3--------|
C|--0---------------1---------------0---------------1-------3--------|


Тональность:

Это должно быть в ТОП-листе! - Топ-лист композиций



Назад
Рекомендуем посмотреть другие песни исполнителя «Rammstein»:

  • Комменты Fb ()
  • Комменты ВК



Добавить в Избранное Браузера
Сохранить здесь Очистить


x

0


+
-

+
-

-

Авторизация





Зарегистрироваться

M

Дата и время

  • 12:44:01
     

Социальные ссылки


Наши приложения

  • Muzbank App Play Market
  • Muzbank Amazon App