MUZBANK


МУЗЫКАЛЬНО-ИНФОРМАЦИОННЫЙ БАНК





RRammstein • Fruhling In Paris (аккорды и текст - chords & lyrics)


9680

Print

Видео «Fruhling In Paris (Rammstein)»

Видео клипы к песне подбираются автоматически сайтом youtube. Возможны некоторые несоответствия клипов песне.

↑ Спрятать рекламу ↑





 
Verse 1
   
D||--------------------------|--------------------------|
A||--------------------------|--------------------------|
F||-----4-----------4--------|-----4-----------4--------|
C||--------6-----------6-----|--------6-----------6-----|
G||-----------6-----------6--|-----------6-----------6--|
D||--4-----------4-----------|--4-----------4-----------|
							                     

|--------------------------|--------------------------|
|-----0-----------0--------|--------------------------|
|--------1-----------1-----|-----4-----------4--------|
|-----------2-----------2--|--------6-----------6-----|
|--------------------------|-----------6-----------6--|
|--0-----------0-----------|--4-----------4-----------|

Play Verse 1 4x's



Pre Chorus 1
 
|--------------------------|--------------------------|
|-----7-----------7--------|-----5-----------5--------|
|--------8-----------8-----|--------6-----------6-----|
|-----------8-----------8--|-----------6-----------6--|  3x's
|--6-----------6-----------|--4-----------4-----------|
|--------------------------|--------------------------|




|--------------------------|--------------------------|
|--------------------------|--------------------------|
|-----3-----------3--------|-----3-----------3--------|
|--------4-----------4-----|--------4-----------4-----|
|-----------4-----------4--|-----------4-----------4--|
|--2-----------2-----------|--2-----------2-----------|


Chorus 1
 
|--------------------------|--------------------------|--------------------------|
|-----4-----------4--------|-----4-----------4--------|--------------------------|
|--------4-----------4-----|--------4-----------4-----|-----4-----------4--------|
|-----------4-----------4--|-----------4-----------4--|--------6-----------6-----|
|--2-----------2-----------|--2-----------2-----------|-----------6-----------6--|
|--------------------------|--------------------------|--4-----------4-----------|


  
|--------------------------|--------------------------|--------------------------|
|--------------------------|-----4-----------4--------|-----4-----------4--------|
|-----4-----------4--------|--------4-----------4-----|--------4-----------4-----|
|--------6-----------6-----|-----------4-----------4--|-----------4-----------4--|
|-----------6-----------6--|--2-----------2-----------|--2-----------2-----------|
|--4-----------4-----------|--------------------------|--------------------------|


  
|--------------------------|--------------------------|--------------------------|
|--------------------------|--------------------------|--------------------------|
|-----4-----------4--------|-----4-----------4--------|-----3-----------3--------|
|--------6-----------6-----|--------6-----------6-----|--------4-----------4-----|
|-----------6-----------6--|-----------6-----------6--|-----------4-----------4--|
|--4-----------4-----------|--4-----------4-----------|--2-----------2-----------|



|--------------------------|--------------------------|--------------------------|
|--------------------------|-----0-----------0--------|-----0-----------0--------|
|-----3-----------3--------|--------1-----------1-----|--------1-----------1-----|
|--------4-----------4-----|-----------2-----------2--|-----------2-----------2--|
|-----------4-----------4--|--------------------------|--------------------------|
|--2-----------2-----------|--0-----------0-----------|--0-----------0-----------|

E|----------------------------------------------------------------------------| 
B|----------------------------------------------------------------------------| 
G|----2-----2-----2-----2------2-----2-----2-----2----------------------------| 
D|----4-----4-----4-----4------4-----4-----4-----4----------------------------| 
A|----4-----4-----4-----4------5-----5-----4-----4----------------------------| 
D|----4-----4-----4-----4------0-----0-----4-----4----------------------------| 

----Im Lichtkleid kam...-----Ich weiss es noch wie heut...----------


E|------------------------------------------------------------------------------| 
B|----5-----5-----3-----3-------------------------------------------------------| 
G|----6-----6-----4-----4---------------2------1------1------1------------------| 
D|----6-----6-----4-----4---------------2------2------2------2------------------| 
A|----4-----4-----2-----2---------------2------2------2------2------------------| 
D|--------------------------------------2------2------2------2------------------| 

------Sie rief mir Worte...-----------Ich hab es nicht bereut...----------



E|------------------------------------------------------------------------------| 
B|-----2-----2-----2-----2------------------------------------------------------| 
G|-----2-----2-----2-----2-------2-----2-----2-----2----------------------------| 
D|-----2-----2-----2-----2-------4-----4-----4-----4----------------------------| 
A|-----0-----0-----0-----0-------4-----4-----4-----4----------------------------| 
D|-------------------------------4-----4-----4-----4----------------------------| 

-------Oh non rien....--------...je ne regrette rien---------


E|-------------------------------------------------------------------------------| 
B|-------------------------------------------------------------------------------| 
G|-----1-----1-----1-----1-----2-----2-----2-----2-----2----...------------------| 
D|-----2-----2-----2-----2-----4-----4-----4-----4-----4----...------------------| 
A|-----2-----2-----2-----2-----5-----5-----5-----5-----4----...------------------| 
D|-----2-----2-----2-----2-----0-----0-----0-----0-----4----...------------------| 

----Wenn ich ihre Haut....-----Der Fruhling blutet in Paris----------------




(intro)    F#m    D 

   F#m 
Im lichtkleid kam sie auf mich zu 
       D                   F#m 
Ich wei? es noch wie heut': 
Ich war so jung, Hab' mich geniert 
        D                F#m 
Doch hab' es nie bereut. 

   C#m                   Bm 
Sie rief mir worte ins gesicht, 
   C#m                 Bm 
Die zunge lustgestreut; 
   C#m                   Bm 
Verstand nur ihre sprache nicht; 
   E 
Ich hab' es nicht bereut. 

      A                F#m 
Oh non rien de rien 
      A                      F#m 
Oh non je ne regrete rien 

   E 
Wenn ich ihre haut verlie? - 
       D                  Dsus2    F#m 
Der fruhling blutet in paris. 

   F#m 
Ich kannte meinen korper nicht 
   D                    F#m 
Den anblick so gescheut 
Sie hat ih nmir bei licht gezeigt 
       D                 F#m 
Ich hab es nciht bereut 

   F#m 
Die lippen oft verkauft so weich 
        D             F#m 
Und ewig sie beruhr'n 
Wenn ich ihren mund verlie? 
        D                  F#m 
Dann fing ich an zu frier'n 

   C#m                   Bm 
Sie rief mir worte ins gesicht, 
   C#m                 Bm 
Die zunge lustgestreut; 
   C#m                  Bm 
Verstand nur ihre sprache nicht; 
   E 
Ich hab' es nicht bereut. 

      A                F#m 
Oh non rien de rien 
      A                      F#m 
Oh non je ne regrete rien 

   E 
Wenn ich ihre haut verlie? - 
       D                  Dsus2    F#m 
Der fruhling blutet in paris. 

(solo)    A    F#m (2x)    E    D    F#m 

   F#m 
Ein flustern fiel mir in den scho? 
        D                F#m 
Und fuhrte feinen klang 
Hat viel geredet nichts gesagt 
        D                 F#m 
Und fuhlte sich gut an 

   C#m                   Bm 
Sie rief mir worte ins gesicht 
   C#m                     Bm 
Und hat sich tief verbeugt 
   C#m                    Bm 
Verstand nur ihre sprache nicht; 
   E 
Ich hab' es nicht bereut. 

      A                F#m 
Oh non rien de rien 
      A                      F#m 
Oh non je ne regrete rien 

   E 
Wenn ich ihre haut verlie? - 
       D                       A       F#m         A      F#m 
Der fruhling blutet in Paris..... in Paris 

   E 
Wenn ich ihre haut verlie? - 
       D                       A       F#m         A      F#m 
Der fruhling blutet in Paris..... in Paris 

   E 
Wenn ich ihre haut verlie? - 
       D                       F#m 
Der fruhling blutet in Paris 

 

Тональность:

Это должно быть в ТОП-листе! - Топ-лист композиций



Назад
Рекомендуем посмотреть другие песни исполнителя «Rammstein»:

  • Комменты Fb ()
  • Комменты ВК



Добавить в Избранное Браузера
Сохранить здесь Очистить


x

0


+
-

+
-

-

Авторизация





Зарегистрироваться

M

Дата и время

  • 12:49:36
     

Социальные ссылки


Наши приложения

  • Muzbank App Play Market
  • Muzbank Amazon App