MUZBANK


МУЗЫКАЛЬНО-ИНФОРМАЦИОННЫЙ БАНК





RRammstein • Hallelujah (аккорды и текст - chords & lyrics)


1092

Print

Видео «Hallelujah (Rammstein)»

Видео клипы к песне подбираются автоматически сайтом youtube. Возможны некоторые несоответствия клипов песне.

↑ Спрятать рекламу ↑






Er ist fromm und sehr sensibel
an seiner Wand ein Bild des Herrn
er wischt die Flecken von der Bibel
das Abendmahl verteilt er gern

D|--5-5-2--3-3-2--5-5-2--3-3-2--5-5-2--3-3-2-|
A|--5-5-2--3-3-2--5-5-2--3-3-2--5-5-2--3-3-2-|
E|--3-3-0--1-1-0--3-3-0--1-1-0--3-3-0--1-1-0-|

D|-5-5-2--3-3-2--5-5-2--3-3-2--5-5-|
A|-5-5-2--3-3-2--5-5-2--3-3-2--5-5-|
E|-3-3-0--1-1-0--3-3-0--1-1-0--3-3-|

D|-2------2------2-------2------3-3-|
A|-2------2------2-------2------3-3-|
E|-0-0000-0-0000-0--0000-0-0000-1-1-|

D|-2------2------2-------2------5-5-|
A|-2------2------2-------2------5-5-|
E|-0-0000-0-0000-0--0000-0-0000-3-3-|

Er liebt die Knaben aus dem Chor
sie halten ihre Seelen rein
doch Sorge macht ihm der Tenor
so muss er ihm am nachsten sein
auf seinem Nachttisch still und stumm
ein Bild des Herrn
er dreht es langsam um
4|-2--3-3-2--5-5-2--3-3-2--5-5-2--3-3-2--5-5-2--3-3-2--5-5--|
5|-2--3-3-2--5-5-2--3-3-2--5-5-2--3-3-2--5-5-2--3-3-2--5-5--|
6|-0--1-1-0--3-3-0--1-1-0--3-3-0--1-1-0--3-3-0--1-1-0--3-3--|

D|-2------2------2-------2------3-3-|
A|-2------2------2-------2------3-3-|
E|-0-0000-0-0000-0--0000-0-0000-1-1-|
                                     (1 time)
D|-2------2------2-------2------5-5-|
A|-2------2------2-------2------5-5-|
E|-0-0000-0-0000-0--0000-0-0000-3-3-|


Wenn die Turmuhr zweimal schlagt
hallelujah
faltet er die Hande zum Gebet
hallelujah
er ist ohne Weib geblieben
hallelujah
so muss er seinen Nachsten lieben
hallelujah

D|-2--5-5-10-10--7--7-7-10-10--5--5-5-9-9--3--3-3-5-5-|(2 times)
A|-2--5-5-10-10--7--7-7-10-10--5--5-5-9-9--3--3-3-5-5-|
E|-0--3-3-8--8---5--5-5-8--8---3--3-3-7-7--1--1-1-3-3-|

Der junge Mann darf bei ihm bleiben
die Sunde nistet uberm Bein
so hilft er gern sie auszutreiben
bei Musik und Kerzenschein

D|-5-5-2---10-10--7----10-10--5----9-9--3---5-5-2-|
A|-5-5-2---10-10--7----10-10--5----9-9--3---5-5-2-|
E|-3-3-0---8--8---5----8--8---3----7-7--1---3-3-0-|

Wenn die Turmuhr zweimal schlagt
hallelujah
faltet er die Hande zum Gebet
hallelujah
er ist ohne Weib geblieben
hallelujah
so muss er seinen Nachsten lieben
hallelujah
Wenn die Turmuhr zweimal schlagt
hallelujah
nimmt er den Jungen ins Gebet
hallelujah
er ist der wahre Christ
hallelujah

D|-5-5-10-10--7---7-7-10-10--5---5-5-9-9--3--3-3-5-5-|(4 times)
A|-5-5-10-10--7---7-7-10-10--5---5-5-9-9--3--3-3-5-5-|
E|-3-3-8--8---5---5-5-8--8---3---3-3-7-7--1--1-1-3-3-|

dreht es langsam um.....
dreht es um

D|-2------2------2-------2------3-3-2-|
A|-2------2------2-------2------3-3-2-|
E|-0-0000-0-0000-0--0000-0-0000-1-1-0-|

D|------2------2-------2------5-5-2|
A|------2------2-------2------5-5-2|
E|-0000-0-0000-0--0000-0-0000-3-3-0|

Тональность:

Это должно быть в ТОП-листе! - Топ-лист композиций



Назад
Рекомендуем посмотреть другие песни исполнителя «Rammstein»:

  • Комменты Fb ()
  • Комменты ВК



Добавить в Избранное Браузера
Сохранить здесь Очистить


x

0


+
-

+
-

-

Авторизация





Зарегистрироваться

M

Дата и время

  • 08:34:22
     

Социальные ссылки


Наши приложения

  • Muzbank App Play Market
  • Muzbank Amazon App