MUZBANK


МУЗЫКАЛЬНО-ИНФОРМАЦИОННЫЙ БАНК





RRammstein • Laichzeit (аккорды и текст - chords & lyrics)


761

Print

Видео «Laichzeit (Rammstein)»

Видео клипы к песне подбираются автоматически сайтом youtube. Возможны некоторые несоответствия клипов песне.

↑ Спрятать рекламу ↑






Intro a
D|-----------------|-----------------|-----------------|----------------|
A|-----------------|-----------------|-----------------|----------------|
E|-000-000-0-0-3-1-|-000-000-0-0-3-1-|-000-000-0-0-3-1-|-000-000-0-0-3-1|

D|-----------------|-----------------|-----------------|-----------3-5-3|
A|-----------------|-----------------|-----------------|-----------3-5-3|
E|-000-000-0-0-3-1-|-000-000-0-0-3-1-|-000-000-0-0-3-1-|-000-000-0-1-3-1|

D|-----------------|-----------------|-----------------|----------------|
A|-----------------|-----------------|-----------------|----------------|
E|-000-000-0-0-3-1-|-000-000-0-0-3-1-|-000-000-0-0-3-1-|-000-000-0-0-3-1|

D|-----------------|-----------------|-----------------|-----------3-5-3-5-|
A|-----------------|-----------------|-----------------|-----------3-5-3-5-|
E|-000-000-0-0-3-1-|-000-000-0-0-3-1-|-000-000-0-0-3-1-|-000-000-0-1-3-1-3-|

Er liebt die Mutter
und von der Seite
den Fisch gibt er ihr selbst
dieser hautet sich vor leerem Hoden
die alte Haut fallt auf den Boden

Riff a
D|-----------------|-----------------|-----------------|----------------|
A|-----------------|-----------------|-----------------|----------------|
E|-000-000-0-0-3-1-|-000-000-0-0-3-1-|-000-000-0-0-3-1-|-000-000-0-0-3-1|

D|-----------------|-----------------|-----------------|-----------3-5-3-5-|
A|-----------------|-----------------|-----------------|-----------3-5-3-5-|
E|-000-000-0-0-3-1-|-000-000-0-0-3-1-|-000-000-0-0-3-1-|-000-000-0-1-3-1-3-|

Er liebt die Schwester
und von hinten
der Fisch frit sich zum Mund
die Kiemen blutig noch vom saugen
an den roten groen Augen

Laichzeit,
Laichzeit,
Laichzeit,
Laichzeit,
Laichzeit,
Laichzeit,
Laichzeit,
es ist Laichzeit

Riff b
D|-----------------|-----------------|-----------------|----------------|
A|-----------------|-----------------|-----------------|----------------|
E|-000-000-0-0-3-1-|-000-000-0-0-3-1-|-000-000-0-0-3-1-|-000-000-0-0-3-1|

D|-----------------|-----------------|-----------------|-----------3-5-3|
A|-----------------|-----------------|-----------------|-----------3-5-3|
E|-000-000-0-0-3-1-|-000-000-0-0-3-1-|-000-000-0-0-3-1-|-000-000-0-1-3-1|

D|-----------------|-----------------|-----------------|----------------|
A|-----------------|-----------------|-----------------|----------------|
E|-000-000-0-0-3-1-|-000-000-0-0-3-1-|-000-000-0-0-3-1-|-000-000-0-0-3-1|

D|-----------------|-----------------|-----------------|-----------3-5-3-5-
A|-----------------|-----------------|-----------------|-----------3-5-3-5-
E|-000-000-0-0-3-1-|-000-000-0-0-3-1-|-000-000-0-0-3-1-|-000-000-0-1-3-1-3-

-4|-5-5-3-8-6-5-5-5-3-8-6-5-5-5-3-8-6-5-5-3-5-|-5-5-5-3-8-6-5-5-5-3-8-6-5-5-
-5|-5-5-3-8-6-5-5-5-3-8-6-5-5-5-3-8-6-5-5-3-5-|-5-5-5-3-8-6-5-5-5-3-8-6-5-5-
-6|-3-3-1-6-4-3-3-3-1-6-4-3-3-3-1-6-4-3-3-1-3-|-3-3-3-1-6-4-3-3-3-1-6-4-3-3-

-4|-5-3-8-6------------------------------------|
-5|-5-3-8-6------------------------------------|
-6|-3-1-6-4-3-3-3-3-3-3-3-3-3----3---3---3---3-|

Er liebt den Hund
oh Gott von oben
der Fisch jetzt mit der Zunge kust
speit tote Milch dir ins Gesicht
ihn anzufassen wagst du nicht

Laichzeit,
Laichzeit,
Laichzeit,
Laichzeit,
Laichzeit,
uberall Fischmilch
Laichzeit
es ist Laichzeit
D|-----------------|-----------------|-----------------|----------------|
A|-----------------|-----------------|-----------------|----------------|
E|-000-000-0-0-3-1-|-000-000-0-0-3-1-|-000-000-0-0-3-1-|-000-000-0-0-3-1|

D|-----------------|-----------------|-----------------|-----------3-5-3|
A|-----------------|-----------------|-----------------|-----------3-5-3|
E|-000-000-0-0-3-1-|-000-000-0-0-3-1-|-000-000-0-0-3-1-|-000-000-0-1-3-1|

D|-----------------|-----------------|-----------------|----------------|
A|-----------------|-----------------|-----------------|----------------|
E|-000-000-0-0-3-1-|-000-000-0-0-3-1-|-000-000-0-0-3-1-|-000-000-0-0-3-1|

D|-----------------|-----------------|-----------------|-----------3-5-3|
A|-----------------|-----------------|-----------------|-----------3-5-3|
E|-000-000-0-0-3-1-|-000-000-0-0-3-1-|-000-000-0-0-3-1-|-000-000-0-1-3-1|

D|-----------------|-----------------|-----------------|----------------|
A|-----------------|-----------------|-----------------|----------------|
E|-000-000-0-0-3-1-|-000-000-0-0-3-1-|-000-000-0-0-3-1-|-000-000-0-0-3-1|

D|-----------------|-----------------|-----------------|-----------3-5-3-5-
A|-----------------|-----------------|-----------------|-----------3-5-3-5-
E|-000-000-0-0-3-1-|-000-000-0-0-3-1-|-000-000-0-0-3-1-|-000-000-0-1-3-1-3-

-4|-5-5-3-8-6-5-5-5-3-8-6-5-5-5-3-8-6-5-5-3-5-|-5-5-5-3-8-6-5-5-5-3-8-6-5-5-
-5|-5-5-3-8-6-5-5-5-3-8-6-5-5-5-3-8-6-5-5-3-5-|-5-5-5-3-8-6-5-5-5-3-8-6-5-5-
-6|-3-3-1-6-4-3-3-3-1-6-4-3-3-3-1-6-4-3-3-1-3-|-3-3-3-1-6-4-3-3-3-1-6-4-3-3-

-4|-5-3-8-6------------------------------------|
-5|-5-3-8-6------------------------------------|
-6|-3-1-6-4-3-3-3-3-3-3-3-3-3----3---3---3---3-|

Die Mutter hat das Meer geholt
Laichzeit
die Schwestern haben keine Zeit
Laichzeit
der Hund steht winkend am Gestade
Laichzeit
der Fisch braucht seine Einsamkeit
Laichzeit

D|-----------------|-----------------|-5-5-5-3-8-6-5-5-5-3-8-6-|
A|-----------------|-----------------|-5-5-5-3-8-6-5-5-5-3-8-6-|
E|-000-000-0-0-3-1-|-000-000-0-0-3-1-|-3-3-3-1-6-4-3-3-3-1-6-4-|

D|-----------------|-----------------|-5-5-5-3-8-6-5-5-5-3-8-6-|
A|-----------------|-----------------|-5-5-5-3-8-6-5-5-5-3-8-6-|
E|-000-000-0-0-3-1-|-000-000-0-0-3-1-|-3-3-3-1-6-4-3-3-3-1-6-4-|

D|-----------------|-----------------|-5-5-5-3-8-6-5-5-5-3-8-6-|
A|-----------------|-----------------|-5-5-5-3-8-6-5-5-5-3-8-6-|
E|-000-000-0-0-3-1-|-000-000-0-0-3-1-|-3-3-3-1-6-4-3-3-3-1-6-4-|

D|-----------------|-----------------|-5-5-5-3-8-6-5-5-5-3-8-6-|
A|-----------------|-----------------|-5-5-5-3-8-6-5-5-5-3-8-6-|
E|-000-000-0-0-3-1-|-000-000-0-0-3-1-|-3-3-3-1-6-4-3-3-3-1-6-4-|

E|-1-1-1--1-1-1--0--0--1-1-1--1-1-1-0--0--1-1-1--1-1-1--0--0--1|

Тональность:

Это должно быть в ТОП-листе! - Топ-лист композиций



Назад
Рекомендуем посмотреть другие песни исполнителя «Rammstein»:

  • Комменты Fb ()
  • Комменты ВК



Добавить в Избранное Браузера
Сохранить здесь Очистить


x

0


+
-

+
-

-

Авторизация





Зарегистрироваться

M

Дата и время

  • 09:59:19
     

Социальные ссылки


Наши приложения

  • Muzbank App Play Market
  • Muzbank Amazon App