MUZBANK


МУЗЫКАЛЬНО-ИНФОРМАЦИОННЫЙ БАНК





RRammstein • Rosenrot (аккорды и текст - chords & lyrics)


4509

Print

Видео «Rosenrot (Rammstein)»

Видео клипы к песне подбираются автоматически сайтом youtube. Возможны некоторые несоответствия клипов песне.

↑ Спрятать рекламу ↑





 


Tuning:C G C F A D

D|---------------------------------|
A|---------------------------------|
F|---------------------------------|
C|-0-0-0-0-0-0-0-0-8-8-8-8-8-8-8-8-|
G|-0-0-0-0-0-0-0-0-8-8-8-8-8-8-8-8-|
C|-0-0-0-0-0-0-0-0-8-8-8-8-8-8-8-8-|

D|---------------------------------|
A|---------------------------------|
F|---------------------------------|
C|-0-0-0-0-0-0-0-0-8-8-8-8-8-3-3-3-|
G|-0-0-0-0-0-0-0-0-8-8-8-8-8-3-3-3-|
C|-0-0-0-0-0-0-0-0-8-8-8-8-8-3-3-3-|


-Chorus- X4
(Distortion)
D|---------------------------------|
A|---------------------------------|
F|---------------------------------|
C|-0-0-0-0-0-0-0-0-8-8-8-8-8-8-8-8-|
G|-0-0-0-0-0-0-0-0-8-8-8-8-8-8-8-8-|
C|-0-0-0-0-0-0-0-0-8-8-8-8-8-8-8-8-|

D|---------------------------------|
A|---------------------------------|
F|---------------------------------|
C|-0-0-0-0-0-0-0-0-8-8-8-8-8-3-3-3-|
G|-0-0-0-0-0-0-0-0-8-8-8-8-8-3-3-3-|
C|-0-0-0-0-0-0-0-0-8-8-8-8-8-3-3-3-|

-Bridge- X2
(Distortion)
D|---------------------------------------------|
A|---------------------------------------------|
F|---------------------------------------------|
C|-12-10-0-12-10-0-12-10-13-10-0-13-10-0-13-10-|
G|-12-10-0-12-10-0-12-10-13-10-0-13-10-0-13-10-|
C|-12-10-0-12-10-0-12-10-13-10-0-13-10-0-13-10-|

D|---------------------------------------------|
A|---------------------------------------------|
F|---------------------------------------------|
C|-12-10-0-12-10-0-12-10-10-8--0-10-8--0-10-8--|
G|-12-10-0-12-10-0-12-10-10-8--0-10-8--0-10-8--|
C|-12-10-0-12-10-0-12-10-10-8--0-10-8--0-10-8--|

-End of Bridge- X1
(Distortion)
D|----|
A|----|
F|----|
C|-12-|
G|-12-|
C|-12-|

-Chorus- X4
(Distortion)
D|---------------------------------|
A|---------------------------------|
F|---------------------------------|
C|-0-0-0-0-0-0-0-0-8-8-8-8-8-8-8-8-|
G|-0-0-0-0-0-0-0-0-8-8-8-8-8-8-8-8-|
C|-0-0-0-0-0-0-0-0-8-8-8-8-8-8-8-8-|

D|---------------------------------|
A|---------------------------------|
F|---------------------------------|
C|-0-0-0-0-0-0-0-0-8-8-8-8-8-3-3-3-|
G|-0-0-0-0-0-0-0-0-8-8-8-8-8-3-3-3-|
C|-0-0-0-0-0-0-0-0-8-8-8-8-8-3-3-3-|

-Bridge- X2
(Distortion)
D|---------------------------------------------|
A|---------------------------------------------|
F|---------------------------------------------|
C|-12-10-0-12-10-0-12-10-13-10-0-13-10-0-13-10-|
G|-12-10-0-12-10-0-12-10-13-10-0-13-10-0-13-10-|
C|-12-10-0-12-10-0-12-10-13-10-0-13-10-0-13-10-|

D|---------------------------------------------|
A|---------------------------------------------|
F|---------------------------------------------|
C|-12-10-0-12-10-0-12-10-10-8--0-10-8--0-10-8--|
G|-12-10-0-12-10-0-12-10-10-8--0-10-8--0-10-8--|
C|-12-10-0-12-10-0-12-10-10-8--0-10-8--0-10-8--|

-End- X1
(Distortion)
D|----|
A|----|
F|----|
C|-12-|
G|-12-|
C|-12-|
 

Sah ein Mädchen ein Röslein stehen
Blühte dort in lichten Höhen
Sprach sie ihren Liebsten an
ob er es ihr steigen kann

Sie will es und so ist es fein
So war es und so wird es immer sein
Sie will es und so ist es Brauch
Was sie will bekommt sie auch

Tiefe Brunnen muss man graben
wenn man klares Wasser will
Rosenrot oh Rosenrot
Tiefe Wasser sind nicht still

Der Jüngling steigt den Berg mit Qual
Die Aussicht ist ihm sehr egal
Hat das Röslein nur im Sinn
Bringt es seiner Liebsten hin

Sie will es und so ist es fein
So war es und so wird es immer sein
Sie will es und so ist es Brauch
Was sie will bekommt sie auch

Tiefe Brunnen muss man graben
wenn man klares Wasser will
Rosenrot oh Rosenrot
Tiefe Wasser sind nicht still

An seinen Stiefeln bricht ein Stein
Will nicht mehr am Felsen sein
Und ein Schrei tut jedem kund
Beide fallen in den Grund

Sie will es und so ist es fein
So war es und so wird es immer sein
Sie will es und so ist es Brauch
Was sie will bekommt sie auch

Tiefe Brunnen muss man graben
wenn man klares Wasser will
Rosenrot oh Rosenrot
Tiefe Wasser sind nicht still

Тональность:

Это должно быть в ТОП-листе! - Топ-лист композиций



Назад
Рекомендуем посмотреть другие песни исполнителя «Rammstein»:

  • Комменты Fb ()
  • Комменты ВК



Добавить в Избранное Браузера
Сохранить здесь Очистить


x

0


+
-

+
-

-

Авторизация





Зарегистрироваться

M

Дата и время

  • 02:51:33
     

Социальные ссылки


Наши приложения

  • Muzbank App Play Market
  • Muzbank Amazon App