MUZBANK


МУЗЫКАЛЬНО-ИНФОРМАЦИОННЫЙ БАНК





RRasmus • Time To Burn (аккорды и текст - chords & lyrics)


764

Print

Видео «Time To Burn (Rasmus)»

Видео клипы к песне подбираются автоматически сайтом youtube. Возможны некоторые несоответствия клипов песне.

↑ Спрятать рекламу ↑






Intro
E|------------------------------------------------------------------------|
B|---4/9-⁄-7--8--9-⁄-7-⁄-4-------4/9-⁄-7--8--9-⁄-7-⁄-4--------------------|
G|------------------------------------------------------------------------|
D|------------------------------------------------------------------------|
A|------------------------------------------------------------------------|
E|------------------------------------------------------------------------|

bout 28 sec in:
E|---------------------------------------------------------------------|
B|---------------------------------------------------------------------|
G|---------------------------------------------------------------------|
D|-6--6-5-4-3-2---6--6-5-4-3-2--6--6-5-4-3-2------13--13--11--9--8--6--|
A|-6--6-5-4-3-2---6--6-5-4-3-2--6--6-5-4-3-2------13--13--11--9--8--6--|
E|-4--4-3-2-1-0---4--4-3-2-1-0--4--4-3-2-1-0------11--11--9---7--6--4--|

Verse
E|------------------------------------------------------------------------|
B|------------------------------------------------------------------------|
G|------------------------------------------------------------------------|
D|------------------------------------------------------------------------|
A|------------------------------------------------------------------------|
E|4-4-3-2-1~-7-7-6-5-4-3--9-9-8-7-6-2--4--4-3-2-1--7-7-6-5-4-3--9-9-8-7-6-2|

Chorus
E|------------------------------------------------------------------------|
B|------------------------------------------------------------------------|
G|------------------------------------------------------------------------|
D|-6--6-5-4-3-2---6--6-5-4-3-2--6--6-5-4-3-2------13--13--11--9--8--6---8-|
A|-6--6-5-4-3-2---6--6-5-4-3-2--6--6-5-4-3-2------13--13--11--9--8--6---8-|
E|-4--4-3-2-1-0---4--4-3-2-1-0--4--4-3-2-1-0------11--11--9---7--6—-4---6-|

bout 1:15 :
E|------------------------------------------------------------------------|
B|------------------------------------------------------------------------|
G|------------------------------------------------------------------------|
D|--9--5--7--4--5--2--4--9---9--8--7--6--5---9--5--7--4--5--2--4----------|
A|--9--5--7--4--5--2--4--9---9--8--7--6--5---9--5--7--4--5--2--4----------|
E|--7--3--5--2--3--0--2--7---7--6--5--4--3---7--3--5--2--3--0--2----------|

Verse
E|------------------------------------------------------------------------|
B|------------------------------------------------------------------------|
G|------------------------------------------------------------------------|
D|-6--6-5-4-3-2---6--6-5-4-3-2--6--6-5-4-3-2------13--13--11--9--8--6-----|
A|-6--6-5-4-3-2---6--6-5-4-3-2--6--6-5-4-3-2------13--13--11--9--8--6-----|
E|-4--4-3-2-1-0---4--4-3-2-1-0--4--4-3-2-1-0------11--11--9---7--6—-4-----|

bout 1:55 :
E|------------------------------------------------------------------------|
B|------------------------------------------------------------------------|
G|------------------------------------------------------------------------|
D|------------------------------------------------------------------------|
A|------------------------------------------------------------------------|
E|4-4-3-2-1~-7-7-6-5-4--11-9-9-8-7-6-2--4--4-3-2-1--7-7-6-5-4-3--9-9-8-7-6-2|

bout 2:19 :
E|---------------|
B|---------------|
G|---------------|
D|---5---7---9---|
A|---5---7---9---|
E|---3---5---7---|



Chorus
E|------------------------------------------------------------------------|
B|------------------------------------------------------------------------|
G|------------------------------------------------------------------------|
D|--9--5--7--4--5--2--4--9---9--8--7--6--5---9--5--7--4--5--2--4--4-------|
A|--9--5--7--4--5--2--4--9---9--8--7--6--5---9--5--7--4--5--2--4--4-------|
E|--7--3--5--2--3--0--2--7---7--6--5--4--3---7--3--5--2--3--0--2--2-------|

Verse
E|------------------------------------------------------|
B|------------------------------------------------------|
G|------------------------------------------------------|
D|---5-5--7----7-7--9-7----5-5-2----4-----4--4--4--4----|
A|---5-5--7----7-7--9-7----5-5-2----4-----4--4--4--4----|
E|---3-3--5----5-5--7-5----3-3-0----2-----2--2--2--2----|

Chorus
E|-------------------------------------------------------------------|
B|-------------------------------------------------------------------|
G|-------------------------------------------------------------------|
D|--9--5--7--4--5--2--4--9---9--8--7--6--5---9--5--7--4--5--2--4--4--|
A|--9--5--7--4--5--2--4--9---9--8--7--6--5---9--5--7--4--5--2--4--4--|
E|--7--3--5--2--3--0--2--7---7--6--5--4--3---7--3--5--2--3--0--2--2--|

Bridge
E|------------------------------------------------------------------------|
B|------------------------------------------------------------------------|
G|------------------------------------------------------------------------|
D|--12--8--10-7--8--5--7--12--------12--8--10--7--8--5--7-----7---7---7---|
A|--12--8--10-7--8--5--7--12--------12--8--10--7--8--5--7-----7---7---7---|
E|--10--6--8--5--6--3--5--10--------10--6--8---5--6--3--5-----5---5---5---|

bout 4:00 :
E|------------------------------------------------------|
B|------------------------------------------------------|
G|------------------------------------------------------|
D|-6--6-5-4-3-2---6--6-5-4-3-2--6--6-5-4-3-2------------|
A|-6--6-5-4-3-2---6--6-5-4-3-2--6--6-5-4-3-2------------|
E|-4--4-3-2-1-0---4--4-3-2-1-0--4--4-3-2-1-0------------|

Тональность:

Это должно быть в ТОП-листе! - Топ-лист композиций



Назад
Рекомендуем посмотреть другие песни исполнителя «Rasmus»:

  • Комменты Fb ()
  • Комменты ВК



Добавить в Избранное Браузера
Сохранить здесь Очистить


x

0


+
-

+
-

-

Авторизация





Зарегистрироваться

M

Дата и время

  • 19:59:40
     

Социальные ссылки


Наши приложения

  • Muzbank App Play Market
  • Muzbank Amazon App