MUZBANK


МУЗЫКАЛЬНО-ИНФОРМАЦИОННЫЙ БАНК





RRea Chris • Road To Hell (аккорды и текст - chords & lyrics)


1202

Print

Видео «Road To Hell (Rea Chris)»

Видео клипы к песне подбираются автоматически сайтом youtube. Возможны некоторые несоответствия клипов песне.

↑ Спрятать рекламу ↑





1 - Intro

E|-8--|-10------12------10-|-8-----------13-|
B|-10-|-12------13------12-|-10----------15-|
G|----|--------------------|----------------|
D|----|--------------------|----------------|
A|----|--------------------|----------------|
E|----|--------------------|----------------|

E|-15------17------15-|-13----------|-7-|-8--|-8--|
B|-17------18------17-|-15------13--|-9-|-10-|-10-|
G|--------------------|---------14--|-9-|-9--|----|
D|--------------------|---------15--|---|----|----|
A|--------------------|-------------|---|----|----|
E|--------------------|-------------|---|----|----|

E|-10------12------10-|-8-----------13-|--15------17------15-|
B|-12------13------12-|-10----------15-|--17------18------17-|
G|--------------------|----------------|---------------------|
D|--------------------|----------------|---------------------|
A|--------------------|----------------|---------------------|
E|--------------------|----------------|---------------------|

E|-13---------|-7-|-8--|
B|-15------13-|-9-|-10-|
G|---------14-|-9-|-9--|
D|---------15-|---|----|
A|------------|---|----|
E|------------|---|----|

2 - playing over first solo
(Solo playing on slide-guitar by Chris Rea)

E|---|--------0--------|------------1-|-3------5------3-|
B|-1-|-3------1------3-|-1----------3-|-5------6------5-|
G|-2-|-4-------------4-|-2------------|-----------------|
D|---|-----------------|--------------|-----------------|
A|---|-----------------|--------------|-----------------|
E|---|-----------------|--------------|-----------------|

E|-1-----------|---------------0-|-1------0-|----0-----------3-|
B|-3---------0-|-1------3------1-|-3------1-|-1-----3--0--3----|
G|-----------0-|-2------4--------|----------|------------------|
D|-------------|-----------------|----------|------------------|
A|-------------|-----------------|----------|------------------|
E|-------------|-----------------|----------|------------------|

E|--------------------|-----------0---------|---------------1-|
B|-3----0--------1----|----3------1------3--|----1----------3-|
G|---------------2----|----4-------------4--|----2------------|
D|--------------------|---------------------|-----------------|
A|--------------------|---------------------|-----------------|
E|--------------------|---------------------|-----------------|

E|---3------5------3--|----1---------------|------------|
B|---5------6------5--|----3------1--------|----------0-|
G|--------------------|-----------2--------|----------1-|
D|--------------------|-----------3--------|----------2-|
A|--------------------|--------------------|------------|
E|--------------------|--------------------|------------|

E|------------------|------------------|----------0-|
B|---------1--------|------------------|----------1-|
G|---------2--------|------------------|----------0-|
D|---------2--------|------------------|------------|
A|------------------|------------------|------------|
E|------------------|------------------|------------|

E|------------------|---------------0-----|-------------|
B|---------3--------|----------3-------6--|----3------1-|
G|---------4--------|----------4----5--7--|----4------2-|
D|---------5--------|----------5----5--5--|----5------3-|
A|------------------|---------------------|-------------|
E|------------------|---------------------|-------------|

E|---------------------|------------|
B|---------1--------1--|----------0-|
G|---------------2-----|----------1-|
D|------------3--------|----------2-|
A|---------------------|------------|
E|---------------------|------------|

3 - Outro
Playing over second solo and fade out...

E|-------------------|-----------0---------|---------------1-|
h--------------1----|----3------1------3--|----1----------3--|
G|--------------2----|----4-------------4--|----2------------|
D|-------------------|---------------------|-----------------|
A|-------------------|---------------------|-----------------|
E|-------------------|---------------------|-----------------|

E|---3------5------3--|----1---------------|------------|
B|---5------6------5--|----3------1--------|----------0-|
G|--------------------|-----------2--------|----------1-|
D|--------------------|-----------3--------|----------2-|
A|--------------------|--------------------|------------|
E|--------------------|--------------------|------------|

E|------------------|------------------|----------------|
B|---------1--------|------------------|--------------1-|
G|---------2--------|------------------|--------------2-|
D|---------2--------|------------------|----------------|
A|------------------|------------------|----------------|
E|------------------|------------------|----------------|

E|----------0---------|---------------1----|----3------5------3-|
B|---3------1------3--|----1----------3----|----5------6------5-|
G|---4-------------4--|----2---------------|--------------------|
D|--------------------|--------------------|--------------------|
A|--------------------|--------------------|--------------------|
E|--------------------|--------------------|--------------------|

E|---1---------------|-------------------|------------|
B|---3------1--------|----------0--------|----------1-|
G|----------2--------|----------1--------|----------2-|
D|----------3--------|----------2--------|----------2-|
A|-------------------|-------------------|------------|
E|-------------------|-------------------|------------|

E|------------------|-----------0---------|---------------1-|
B|-------------1----|----3------1------3--|----1----------3-|
G|-------------2----|----4-------------4--|----2------------|
D|------------------|---------------------|-----------------|
A|------------------|---------------------|-----------------|
E|------------------|---------------------|-----------------|

E|---3------5------3--|----1---------------|------------|
B|---5------6------5--|----3------1--------|----------0-|
G|--------------------|-----------2--------|----------1-|
D|--------------------|-----------3--------|----------2-|
A|--------------------|--------------------|------------|
E|--------------------|--------------------|------------|

E|------------------|------------------|----------------|
B|---------1--------|------------------|--------------1-|
G|---------2--------|------------------|--------------2-|
D|---------2--------|------------------|----------------|
A|------------------|------------------|----------------|
E|------------------|------------------|----------------|

E|----------0---------|---------------1----|----3------5------3-|
B|---3------1------3--|----1----------3----|----5------6------5-|
G|---4-------------4--|----2---------------|--------------------|
D|--------------------|--------------------|--------------------|
A|--------------------|--------------------|--------------------|
E|--------------------|--------------------|--------------------|

fade out...
E|---1---------------|-------------------|------------|
B|---3------1--------|----------0--------|----------1-|
G|----------2--------|----------1--------|----------2-|
D|----------3--------|----------2--------|----------2-|
A|-------------------|-------------------|------------|
E|-------------------|-------------------|------------|

E|------------------|-----------0---------|------|
B|-------------1----|----3------1------3--|----1-|
G|-------------2----|----4-------------4--|----2-|
D|------------------|---------------------|------|
A|------------------|---------------------|------|
E|------------------|---------------------|------|

PLAY 2 - Arranges, played during songs up to second guitar solo.

E|------------------|------------------|--------------------|---------------|
H------------------|------------------|--------------------|----------------|
G|------------------|------------------|-------------2------|--2----------2-|
D|------------------|------------------|-------------2------|--2----------2-|
A|------------------|------------------|--------0-----------|---------------|
E|------------------|------------------|--------------------|---------------|

E|--------------------|--------------------|-----------------|
B|--------------------|--------------------|-----------------|
G|---2---------2------|--2----------2------|--2--2---------2-|
D|---2---------2------|--2----------2------|--2--2---------2-|
A|--------0-----------|--------------------|----------0------|
E|--------------------|--------------------|-----------------|

E|--------------------|---------------------|--------------------|
B|--------------------|---------------------|------------1--1----|
G|-2-----------0------|---------------------|------------------2-|
D|-2--------2---------|--2----0-------------|--------------------|
A|--------------------|----------3----------|--------------------|
E|--------------------|---------------------|--------------------|

E|---------------------|------------------|------------|
B|-1-----1--3----------|------------------|----------1-|
G|----2----------------|------------------|------------|
D|---------------------|------------------|------------|
A|---------------------|------------------|------------|
E|---------------------|------------------|------------|

E|---7----5--4----------|---------------------|----------5--7----7-|
B|--------------5-------|---------------------|------5-------------|
G|-----------------4----|---------------------|--5-----------------|
D|----------------------|------------------7--|--------------------|
A|----------------------|--------------7------|--------------------|
E|----------------------|----------5----------|--------------------|

E|---------7--0------|----------0----0--0--|------------|
B|-------------------|---------------------|----------3-|
G|-------------------|---------------------|------------|
D|-------------------|---------------------|------------|
A|-------------------|---------------------|------------|
E|-------------------|---------------------|------------|

E|----------------0--|----------------------|------------|
B|---------1---------|----1--3-----1--------|----------0-|
G|-------------------|----------2-----------|------------|
D|-------------------|----------------------|------------|
A|-------------------|----------------------|------------|
E|-------------------|----------------------|------------|

E|------------------|--------------------|
B|---------1--------|--------------------|
G|------------------|----------0---------|
D|------------------|---------------2----|
A|------------------|------------------0-|
E|------------------|--------------------|

E|-----------------|-----------1-|
B|-----------------|---------3---|
G|-----------------|---------2---|
D|-----------------|-------------|
A|-----------------|-------------|
E|-----------------|-------------|

E|-------------------|------------------------|--------------|
B|-------------------|------------------------|--------------|
G|--------------2----|--2--2--------0---------|------------2-|
D|--------------2----|--2--2----0-2--------2--|------0-----2-|
A|---------0---------|------------------------|---------3--0-|
E|-------------------|------------------------|--------------|

E|-----------------|-------------------|------------------|----------0-|
B|-----------------|----------3--------|------------------|------------|
G|-----------------|----------2--------|------------------|------------|
D|-----------------|----------0--------|------------------|------------|
A|-----------------|-------------------|------------------|------------|
E|-----------------|-------------------|------------------|------------|

E|----0--0------------|------------------|
B|-----------3--------|----------1-------|
G|--------------------|-------------0--2-|
D|--------------------|------------------|
A|--------------------|------------------|
E|--------------------|------------------|

E|---------0------3--|-----------------3--|--1----0------|
B|-------------------|--------------5-----|------------3-|
G|-------------------|--------------------|--------------|
D|-------------------|--------------------|--------------|
A|-------------------|--------------------|--------------|
E|-------------------|--------------------|--------------|

E|-----------------|-------------------|-------------------|------0------|
B|-----------------|------------1------|--1----------------|-----------3-|
G|-----------------|------------2------|--2----------------|-------------|
D|-----------------|------------3------|--3----------------|-------------|
A|-----------------|-------------------|-------------------|-------------|
E|-----------------|-------------------|-------------------|-------------|

E|------------------|----|
B|-----------3------|--3-|
G|-----------4------|--4-|
D|-----------2------|--2-|
A|------------------|----|
E|------------------|----|

Fast slide
E|-------1-5-10-|
B|--------------|
G|--------------|
D|--------------|
A|--------------|
E|--------------|

E|------------------|-------|
B|-----------1------|--1--1-|
G|-----------2------|--2--2-|
D|-----------2------|--2--2-|
A|------------------|-------|
E|------------------|-------|

E|-----------------|-------------------|------0--5---7---7-|
B|-----------------|-------------------|--1----------------|
G|-----------------|----------------2--|-------------------|
D|-----------------|-------------------|-------------------|
A|-----------------|-------------------|-------------------|
E|-----------------|-------------------|-------------------|

E|-0--------0-|
B|------------|
G|------------|
D|------------|
A|------------|
E|------------|

E|-----------------|------------------|------------------|----5----4-|
B|-----------------|------------------|------------------|----6----5-|
G|-----------------|------------------|------------------|----5----4-|
D|-----------------|------------------|------------------|-----------|
A|-----------------|------------------|------------------|-----------|
E|-----------------|------------------|------------------|-----------|

E|-----------------|------------------|----5--7----5-|
B|-----------------|------------------|--------------|
G|-----------------|------------------|--------------|
D|-----------------|------------------|--------------|
A|-----------------|------------------|--------------|
E|-----------------|------------------|--------------|

E|-----------7----0--|------------------|----------------------|
B|-------------------|------------------|--------3-1-3----1--3-|
G|-------------------|------------------|----------------------|
D|-------------------|------------------|----------------------|
A|-------------------|------------------|----------------------|
E|-------------------|------------------|----------------------|

E|-----------------|------------------|-------------8--8-|
B|-----------------|------------------|------------------|
G|-----------------|------------------|------------------|
D|-----------------|------------------|------------------|
A|-----------------|------------------|------------------|
E|-----------------|------------------|------------------|

Starting second guitar solo...
E|-8---8--8---8----7----|-------------8---8--|--8---8---8--8----7-|
B|----------------------|--------------------|--------------------|
G|----------------------|--------------------|--------------------|
D|----------------------|--------------------|--------------------|
A|----------------------|--------------------|--------------------|
E|----------------------|--------------------|--------------------|

PLAY 3 - First guitar solo.

E|----15---15---15--------|----------15--15--------|-------------------|
H----17---17---17--------|----------17--17----17--|--------------------|
G|------------------------|--------------------17--|----------------14-|
D|------------------------|------------------------|-------------------|
A|------------------------|------------------------|-------------------|
E|------------------------|------------------------|-------------------|

E|-----------------------|---------------|
B|-13------13------------|------------15-|
G|-----14----------------|------14----16-|
D|-----------------------|---------------|
A|-----------------------|---------------|
E|-----------------------|---------------|

E|---------12--15------|------15----15------15--|--15----------15--12--10--8-|
B|---------------------|------------------------|--------15------------------|
G|---------------------|------------------------|----------------------------|
D|---------------------|------------------------|----------------------------|
A|---------------------|------------------------|----------------------------|
E|---------------------|------------------------|----------------------------|

E|---------15--------------|----------------5--|--8--5--8-|
B|-------------17--15------|-------------------|----------|
G|---------------------17--|-------------------|----------|
D|-------------------------|-------------------|----------|
A|-------------------------|-------------------|----------|
E|-------------------------|-------------------|----------|

E|-----5--8--8---8--8---|--8--------7---7-----|------------|
B|----------------------|---------------------|----------5-|
G|----------------------|---------------------|------------|
D|----------------------|---------------------|------------|
A|----------------------|---------------------|------------|
E|----------------------|---------------------|------------|

E|---------5-|
B|-6--5------|
G|-----------|
D|-----------|
A|-----------|
E|-----------|

PLAY 4 - Second guitar solo

E|------------------|------------------|----12---12---12-|
H------------------|------------------|------------------|
G|------------------|------------------|-----------------|
D|------------------|------------------|-----------------|
A|------------------|------------------|-----------------|
E|------------------|------------------|-----------------|

E|-----------------|------12----10--------|--10-|
B|-----------------|----------------------|-----|
G|-----------------|----------------------|-----|
D|-----------------|----------------------|-----|
A|-----------------|----------------------|-----|
E|-----------------|----------------------|-----|

E|---------------5-8-|--8----8--5--10----10----|--------------15-----|
B|-------------------|-------------------------|------------------17-|
G|-------------------|-------------------------|---------------------|
D|-------------------|-------------------------|---------------------|
A|-------------------|-------------------------|---------------------|
E|-------------------|-------------------------|---------------------|

E|---------------------|--------------15----|------------15-------------|
B|---------------------|--------------------|--17----------------17-----|
G|-17----17------------|--------------------|------17----------------17-|
D|---------------------|--------------------|---------------------------|
A|---------------------|--------------------|---------------------------|
E|---------------------|--------------------|---------------------------|

E|---------------8--|------8--8------------|----------8------8-|
B|------------------|--10------------------|-------------------|
G|------------------|----------------------|-------------------|
D|------------------|----------------------|-------------------|
A|------------------|----------------------|-------------------|
E|------------------|----------------------|-------------------|

E|---8----8--8--7------|--------------3------|---------------|
B|---------------------|----------5----------|--0---3--1-----|
G|---------------------|-----------------0---|-------------2-|
D|---------------------|---------------------|---------------|
A|---------------------|---------------------|---------------|
E|---------------------|---------------------|---------------|

E|----------------------|-----------------------|------------5----3-|
B|----------------------|-----------------------|-------------------|
G|------0--2--2---------|----0-------2----0--2--|-------------------|
D|---2---------------2--|---------2-------------|-------------------|
A|----------------------|-----------------------|-------------------|
E|----------------------|-----------------------|-------------------|

E|-0---------------0--------|----------------5--|--8---10---12--10------8-|
B|----3-1-3--1--3-----3--1--|-------------------|-------------------------|
G|--------------------------|-------------------|-------------------------|
D|--------------------------|-------------------|-------------------------|
A|--------------------------|-------------------|-------------------------|
E|--------------------------|-------------------|-------------------------|

E|---10----------17----|------17----17----17--17--|----17--17--17--17------17-|
B|---------------------|--------------------------|---------------------------|
G|---------------------|--------------------------|---------------------------|
D|---------------------|--------------------------|---------------------------|
A|---------------------|--------------------------|---------------------------|
E|---------------------|--------------------------|---------------------------|

E|-----17----17----15------|------------------------------|--------------8--8-|
B|---------------------17--|--17--15----15----------18----|-------------------|
G|-------------------------|---------17-----17------------|-------------------|
D|-------------------------|------------------------------|-------------------|
A|-------------------------|------------------------------|-------------------|
E|-------------------------|------------------------------|-------------------|

E|---5-5-8--5--15--------|--12--------------12-----|
B|-----------------------|------------13--------13-|
G|-----------------------|-------------------------|
D|-----------------------|-------------------------|
A|-----------------------|-------------------------|
E|-----------------------|-------------------------|

E|-15--12--------------12------|---------------------------|
B|---------13--------------13--|--13--------13----13----13-|
G|-------------14--------------|------14-------------------|
D|-----------------------------|---------------------------|
A|-----------------------------|---------------------------|
E|-----------------------------|---------------------------|

E|-------------------------|------------------------12-|
B|---13----13--13----13----|--13----13----13--13-------|
G|-------------------------|---------------------------|
D|-------------------------|---------------------------|
A|-------------------------|---------------------------|
E|-------------------------|---------------------------|

PLAY 5 - Lyrics and chords

Play 1 - intro with Play 2 then...

Am
Well I'm standing by the river,
Dm
But the water doesn't flow.
F E
It boils with every poison -
Am
You can think of.

Am
And I'm underneath the street light,
Dm
The delight of joy I know,
F E
Scared beyond belief,
Am
Way down in the shadows.

C
And the perverted fear of violence,
G
Chokes a smile on every face,
F E
Common sense is ringing, out the bells.
Am Dm
This ain't no technological breakdown,
F E Am
Oh-no, this is the road to hell.

------------------
First guitar solo
-------------------

C
And as the roads jam up with credit,
G
And there's nothing you can do,
F
It's all just bits of paper,
E
Flying a way from you.
Am
Oh look out world take a good look,
Dm
Look who's down there,
F E Am
You must learn this lesson fast, and learn it well.

Am Dm
This ain't no upwardly mobile freeway,
F E
Oh-no, this is the road,
F E
This is the road,
F E Am
This is the road ... to hell.

Тональность:

Это должно быть в ТОП-листе! - Топ-лист композиций



Назад
Рекомендуем посмотреть другие песни исполнителя «Rea Chris»:

  • Комменты Fb ()
  • Комменты ВК



Добавить в Избранное Браузера
Сохранить здесь Очистить


x

0


+
-

+
-

-

Авторизация





Зарегистрироваться

M

Дата и время

  • 01:56:42
     

Социальные ссылки


Наши приложения

  • Muzbank App Play Market
  • Muzbank Amazon App