MUZBANK


МУЗЫКАЛЬНО-ИНФОРМАЦИОННЫЙ БАНК





RRed Hot Chili Peppers • Aeroplane (аккорды и текст - chords & lyrics)


542

Print

Видео «Aeroplane (Red Hot Chili Peppers)»

Видео клипы к песне подбираются автоматически сайтом youtube. Возможны некоторые несоответствия клипов песне.

↑ Спрятать рекламу ↑






Intro
  Gm              Cm                             Gm
g|----------------|---------------------------------|--------=-|
d|----------------|---------------------------------|--------=-|
a|----------------|--------------------------=------|----------|
e|-15-5--6--------|--------8------0------1////10----|--15-5--6-|

  Cm
g|------------------------------------|
d|-------------10-----13-13-12-----10-|
a|--------10------10------------------|
e|-8----------------------------------|

verse-SLAP EVERYTHING ON E AND A STRINGS
AND PLUCK THE D AND G STRINGS
**  Gm         Gm/Bb      Cm         Cm/Eb
g|-----------------7---7----|--------5----5--------------------|
d|-----5--------------------|----------------------3----3----5-|
a|------------------------4-|-3--3----3----5-6-6---------------|
e|-3-3---5-(6)--(6)---------|------------------------3-----3---|

Repeat ** part then play this
g|--------5----5---------------5----5----5-|
d|-------------------------5---------------|
a|-3--3----3----5h6-6---6----6----6--------|
e|-----------------------------------------|

Ending
g|--------------3-----------------------------------|
d|----5----3----------------------------------------|
a|------------------4----3--1---3-1-----------------|
e|-3--------------------------------------3-1-1-1-2-|

g|-------------3-4-------------------|----5--------|
d|-------5-5-------5----3------------|-------------|
a|----5----------------5-------4-----|-3-----------|
e|-3------------------------3------3-|-------319/3-|
THats it

Тональность:

Это должно быть в ТОП-листе! - Топ-лист композиций



Назад
Рекомендуем посмотреть другие песни исполнителя «Red Hot Chili Peppers»:

  • Комменты Fb ()
  • Комменты ВК



Добавить в Избранное Браузера
Сохранить здесь Очистить


x

0


+
-

+
-

-

Авторизация





Зарегистрироваться

M

Дата и время

  • 02:11:16
     

Социальные ссылки


Наши приложения

  • Muzbank App Play Market
  • Muzbank Amazon App