MUZBANK


МУЗЫКАЛЬНО-ИНФОРМАЦИОННЫЙ БАНК





RRed Hot Chili Peppers • By The Way (аккорды и текст - chords & lyrics)


963

Print

Видео «By The Way (Red Hot Chili Peppers)»

Видео клипы к песне подбираются автоматически сайтом youtube. Возможны некоторые несоответствия клипов песне.

↑ Спрятать рекламу ↑






Вступление на басу
1|-17-17-17-17-17-17-17-17-------------------------------------|
2|-15-15-15-15-15-15-15-15--17-17-17-17-17-17-17-17--14-14-14--|
3|--------------15-15-15-15-15-15-15-15--12-12-12-12-12-12-12--|
4|-------------------------------------------------------------|

1|----------------|
2|-14-14-14-14-14-|
3|-12-------------|
4|----------------|

Вместе с басом играется партия на гитаре (без перегруза)
E|-------------------------------------------------------------|
B|-5-5-5-5-5--5--5--5------------------------------------------|
G|-5-5-5-5-5--5--5--5--5-5-5-5-5--5--5--5----------------------|
D|-3-3-3-3-3--3--3--3--5-5-5-5-5--5--5--5---7--7--7--7-7-7-7-7-|
A|----------3--3--3--3-3-3-3-3--7--7--7--7--7--7--7--7---------|
E|------------------------------5--5--5--5--5--5--5--5---------|

1|----------------------------------|
2|---------5------------------5-----|
3|-----5h7---7-5h7p5------5h7---7-5-|
4|-5-5----------------5-5-----------|

E|-7-7----------------7-7--|
B|-7-7----------------7-7--|
G|-7-7----------------7-7--|
D|-------------------------|
A|-------------------------|
E|-------------------------|

Standing in line to see the show tonight
and there's a light of
heavy glow
by the way I tried to say
I'd be there waiting for
Dani's the girl is
singing songs to me
beneath the marquee
overload

steak knife
card shark
con job
boot cut

Skin that flick
she's such a little DJ
to get there quick by street but not the freeway
turn that trick
to make a little leeway
beat that nic
but not the way that we play

dogtown
blood bath
rib cage
soft tal

Standing in line to
see the show tonight
and there's a light on
heavy glow
by the way I tried to say
I'd be there waiting for

black jack
dope dick
pawn shop
quick pick

kiss that dyke
i know you want to hold one
not on strike
but I'm about to bowl one
bite that mic
I know you never stole one
girls that like
a story, so I told one

song bird
main line
cash back
hard top

Standing in line to
see the show tonight
and there's a light on
heavy glow
by the way I tried to say
I'd be there waiting for
Dani's the girl is
singing songs to me
beneath the marquee
overload

Тональность:

Это должно быть в ТОП-листе! - Топ-лист композиций



Назад
Рекомендуем посмотреть другие песни исполнителя «Red Hot Chili Peppers»:

  • Комменты Fb ()
  • Комменты ВК



Добавить в Избранное Браузера
Сохранить здесь Очистить


x

0


+
-

+
-

-

Авторизация





Зарегистрироваться

M

Дата и время

  • 01:27:40
     

Социальные ссылки


Наши приложения

  • Muzbank App Play Market
  • Muzbank Amazon App