MUZBANK


МУЗЫКАЛЬНО-ИНФОРМАЦИОННЫЙ БАНК





RRed Hot Chili Peppers • Deep Kick (аккорды и текст - chords & lyrics)


458

Print

Видео «Deep Kick (Red Hot Chili Peppers)»

Видео клипы к песне подбираются автоматически сайтом youtube. Возможны некоторые несоответствия клипов песне.

↑ Спрятать рекламу ↑






Intro: (Repeat 6 times)
G|-------------------|--------------------|--------------------|
D|-------11-------12-|--------------------|--------11-------12-|
A|----10-------------|-10---12---10-------|------10----10------|
E|-12-------10-12----|----12--------10-12-|-0--12---------12---|

G|---------------------------|
D|---------------------------|
A|--10----12--10--8h10p9-----|
E|----12---------------10--9-|

Repeat 4 times
G|--------------------------|----12---------------12-------|
D|-14--14--12/14-14--14--14-|-14----14-14--14--14---14--14-|
A|--------------------------|------------------------------|
E|--------------------------|------------------------------|

Bass figure 1:
G|-----------------------|----------------------|
D|-----------------------|----------------------|
A|-7--5--7--5-7--7--5--7-|---7--5-7--7--5-7---7-|
E|-0-----0----0----------|-0-------0--------0---|

Variations:
G|--------------------------|--------------------------|
D|--------------------------|----------------------7---|
A|---5--7--7-7/-10-9--7-5-7-|--5--7------10-9-7--9---7-|
E|-------0------------------|-0-----0-0----------------|

Chorus:
G|-------------------------------|--------------------------|
D|-------------17----------------|----17---------17---------|
A|-15--15--15-----15--15--15--15-|-15----15--15------15--15-|
E|-------------------------------|--------------------------|

G|-------------------------------|-----------------------------|
D|-------------14----------------|----14-------------14--------|
A|-12--12--12-----12--12--12--12-|-12----12--12--12-----12--12-|
E|-------------------------------|-----------------------------|

Interlude:
G|-------------------|------------------|----------------------|
D|----------------12-|--------12-----12-|----------------14----|
A|-10-10-10-10-10----|-10-10------10----|-12--12--12--12----12-|
E|-------------------|------------------|----------------------|

G|--------------------------|
D|-----------------14-14----|
A|-12--12--12--12--------12-|
E|--------------------------|
Repeat 2 times

G|---------------------------|----------------------------|
D|-----------------17--------|----------------------------|
A|-15--15--15--15-----15--15-|-15--15--15-15---15--15--15-|
E|---------------------------|----------------------------|

G|-----------------------|--------------------------|
D|-----------------------|--------------------------|
A|-17--17--17-17--17--17-|-17--17--17-18--18--18-18-|
E|-----------------------|--------------------------|

                  B(1/4)            B(1/4)
G|------------------------------------|
D|-19-17--19-17--17-------------------|
A|------19-----19----19-17--19-17--17-|
E|----------------------19-----19-----|
Repeat bar 3 times

G|--------------------------------|----------------------------|
D|-19-17--19-17--19-17--17-19--19-|-17--19-17--19-17--19-17----|
A|------19-----19-----19-----19---|---19-----19-----19------19-|
E|--------------------------------|----------------------------|

Outro: Repeat till end w/variations
G|-----------------|-----------------|------------------|------|
D|-----------------|-----------------|------------------|------|
A|-0--0--0--0--0-2-|-4--4--4-4---0-2-|-5---5-5--5---4-5-|-7--7-|
E|-----------------|-----------------|------------------|------|

Тональность:

Это должно быть в ТОП-листе! - Топ-лист композиций



Назад
Рекомендуем посмотреть другие песни исполнителя «Red Hot Chili Peppers»:

  • Комменты Fb ()
  • Комменты ВК



Добавить в Избранное Браузера
Сохранить здесь Очистить


x

0


+
-

+
-

-

Авторизация





Зарегистрироваться

M

Дата и время

  • 22:56:36
     

Социальные ссылки


Наши приложения

  • Muzbank App Play Market
  • Muzbank Amazon App