MUZBANK


МУЗЫКАЛЬНО-ИНФОРМАЦИОННЫЙ БАНК





RRed Hot Chili Peppers • Emit Remmus (аккорды и текст - chords & lyrics)


500

Print

Видео «Emit Remmus (Red Hot Chili Peppers)»

Видео клипы к песне подбираются автоматически сайтом youtube. Возможны некоторые несоответствия клипов песне.

↑ Спрятать рекламу ↑






Riff 1
(allow as much feedback as possible, and bend with whammy bar)
E|-----------------------|-----------------------|
B|--11~~~~~~~~~~~~~~~~~~-|-9~~~~~~~~~~~~~~~~~~~~-|
G|-----------------------|-----------------------|
D|-----------------------|-----------------------|
A|-----------------------|-----------------------|
E|-----------------------|-----------------------|

Riff 2
E|---------------------------------------------------------|
B|------------------------------------------------------13-|
G|--8--10-10-10--13-13------------8--10-10-10--13--13---13-|
D|--8--10-10-10-/13-13--x-x--x-x--8--10-10-10-/13--13---13-|
A|--6--8--8--8--/11-11--x-x--x-x--6--8--8--8--/11--11------|
E|---------------------------------------------------------|

E|---------------------------------------------|
B|---------------------------------------------|
G|-8-10-10-10--13-13---------8-10-10-10--13-13-|
D|-8-10-10-10-/13-13-x-x-x-x-8-10-10-10-/13-13-|
A|-6-8--8--8--/11-11-x-x-x-x-6-8--8--8--/11-11-|
E|---------------------------------------------|

E|----------------------|
B|-13-13-13-13-13-13-13-|
G|-13-13-13-13-13-13-13-|
D|-13-13-13-13-13-13-13-|
A|----------------------|
E|----------------------|

Riff 1 (with variations)
E|-------------10--------|-----------------------|
B|--11~~~~~~~~----11~~~~-|-9~~~~~~~~~~~~~~~~~~~~-|
G|-----------------------|-----------------------|
D|-----------------------|-----------------------|
A|-----------------------|-----------------------|
E|-----------------------|-----------------------|

Riff 3
E|-------------------------------------------------------------|
B|-------------------------------------------------------------|
G|-------------------------------------------------------------|
D|-1-1-1-1-1-----------------------------------3-3-3--3--3-3---|
A|-3-3-3-3-3-0-3--3--3--3-3-0--5--5--5--5-5-0--3-3-3--3--3-3-0-|
E|-3-3-3-3-3-0-4--4--4--4-4-0--6--6--6--6-6-0--1-1-1--1--1-1-0-|

E|-------------------------------------------------|
B|-------------------------------------------------|
G|-------------------------------------------------|
D|--1--1--1--1-1-----------------------------------|
A|--3--3--3--3-3-0--3--3--3--3-3-0--5--5--5--5-5-0-|
E|--3--3--3--3-3-0--4--4--4--4-4-0--6--6--6--6-6-0-|

E|-------------------------|
B|-13-13-13-13-13-13-13-13-|
G|-13-13-13-13-13-13-13-13-|
D|-13-13-13-13-13-13-13-13-|
A|-------------------------|
E|-------------------------|

Тональность:

Это должно быть в ТОП-листе! - Топ-лист композиций



Назад
Рекомендуем посмотреть другие песни исполнителя «Red Hot Chili Peppers»:

  • Комменты Fb ()
  • Комменты ВК



Добавить в Избранное Браузера
Сохранить здесь Очистить


x

0


+
-

+
-

-

Авторизация





Зарегистрироваться

M

Дата и время

  • 16:18:49
     

Социальные ссылки


Наши приложения

  • Muzbank App Play Market
  • Muzbank Amazon App