MUZBANK


МУЗЫКАЛЬНО-ИНФОРМАЦИОННЫЙ БАНК





RRed Hot Chili Peppers • Good Time Boys (аккорды и текст - chords & lyrics)


419

Print

Видео «Good Time Boys (Red Hot Chili Peppers)»

Видео клипы к песне подбираются автоматически сайтом youtube. Возможны некоторые несоответствия клипов песне.

↑ Спрятать рекламу ↑






E|-1010--1010-1010-10--10-------|
B|------------------------------|
G|-7-7---7-7--7-7--7^9-9--------|
D|------------------------------|
A|------------------------------|
E|-------------------------0-3>-|

E|-1212--1212-1212-12--12-------------5-5-5-5-|
B|------------------------------------5-5-5-5-|
G|-7-7---7-7--7-7--7^9-9----------------------|
D|--------------------------------------------|
A|--------------------------------------------|
E|-------------------------0-3>--0------------|

Verse
E|--------------------------------------------55-55-5-5-|
B|------2^0-------------------------2^0-------55-55-5-5-|
G|------2^0-------------------------2^0-----------------|
D|----------2-0-2------0----------------2-0-2-----------|
A|----------------0-1-2-2-1-0---------------------------|
E|--0-0----------------------3--0-0---------------------|

E|--------------------------------------------55-55-5-5-|
B|------2^0-------------------------2^0-------55-55-5-5-|
G|------2^0-------------------------2^0-----------------|
D|----------2-0-2------0-2^0---------------2-0-2--------|
A|----------------0-1-2-----0---------------------------|
E|--0-0-----------------------3-0-0---------------------|

E|------------------------------------------------------|
B|------2^0-------------------------2^0-----------------|
G|------2^0-------------------------2^0-----------------|
D|----------2-0-2------0-2^0-------------0^2^0----------|
A|----------------0-1-2-----0------------------2-1-0----|
E|--0-0-----------------------3-0-0------------------3>-|

E|--------------------5-|
B|------2^0-----------5-|
G|------2^0-------------|
D|----------2-0-2-------|
A|----------------------|
E|--0-0-----------------|

Verse pt.2
E|-----------------------------------------|
B|------2-2^0----------------8-8-----------|
G|------2-2^0--0-6-7--0-6-7--7-7--0-6-7----|
D|---------------------------6-6-------7-5-|
A|---------------------------7-------------|
E|--0-0------------------------------------|

E|--------------------------------55-55-5-5-|
B|------2-2^0----------------8-8--55-55-5-5-|
G|------2-2^0--0-6-7--0-6-7--7-7------------|
D|---------------------------6-6------------|
A|---------------------------7--------------|
E|--0-0-------------------------------------|

Verse pt.3
E|-----------3--------55|-----------3--------55-|
B|-----------3--------55|-----------3--------55-|
G|----------------------|-----------------------|
D|-0-222-0-2---0-22-0---|-0-222-0-2---0-22-0----|
A|----------------------|-----------------------|
E|----------------------|-----------------------|

E|-----------3--------55|-----------3-----------|
B|-----------3--------55|-----------3-----------|
G|----------------------|-----------------------|
D|-0-222-0-2---0-22-0---|-0-222-0-2---0-2-0-----|
A|----------------------|------------------2-0--|
E|----------------------|---------------------3-|

Repeat Verse pt.2

Verse pt.4
E|---------------3---33------------------5-5--|
B|------3-2^0----3---33------3-2^0-------5-5--|
G|------3-2^0----------------3-2^0------------|
D|--------------------------------------------|
A|--------------------------------------------|
E|--0-0-------0-0-0-0----0-0-------0-0-0------|

E|---------------3---33-------3--3--3--3--|
B|------3-2^0----3---33-------3--3--3--3--|
G|------3-2^0-----------------------------|
D|-----------------------0-222-22-22-22---|
A|----------------------------------------|
E|--0-0-------0-0-0-0---------------------|

Chorus
E|---7777------------------------7777---------------------|
B|---7777------------------------7777---------------------|
G|---7777--7-9---9-9-7-9---------7777---7-9--xx-----------|
D|-9-----9-7-9---9-9-7-9-------9------9-7-9--xx-5555-5555-|
A|-9-----9-5-7---7-7-5-7-------9------9-5-7--xx-5555-5555-|
E|-7-----7----------------5>---7------7---------3333-3333-|

E|---7777------------------------7777---------------------|
B|---7777------------------------7777---------------------|
G|---7777--7-9---9-9-7-9---------7777---7-9--xx-----------|
D|-9-----9-7-9---9-9-7-9-------9------9-7-9--xx-5555-5555-|
A|-9-----9-5-7---7-7-5-7-------9------9-5-7--xx-5555-5555-|
E|-7-----7----------------5>---7------7---------3333-3333-|

Fill
E|----------------------5-3-----------------------------------|
B|------2^0---------------------------2^0---------------------|
G|------2^0---------0^2---------------2^0---------------------|
D|----------2-0---------------------------2-0---0^2^0---------|
A|---------------------------------------------------2-1-0----|
E|--3/5--------3>0-----------------3/5-------3>0-----------3>-|

E|-------------------------------------------5-|
B|------2^0------------------75---2^0-------5--|
G|------2^0-----------64----------2^0----------|
D|----------2-0----5/7----7/9----------2-0-2---|
A|---------------------------------------------|
E|--3/5--------3>0--------------0-0------------|

Repeat Verse pt.2

Repeat Verse pt.3

E|--------------------------------------------55-55-5-5-|
B|------2^0-------------------------2^0-------55-55-5-5-|
G|------2^0-------------------------2^0-----------------|
D|----------2-0-2------0----------------2-0-2-----------|
A|----------------0-1-2-2-1-0---------------------------|
E|--0-0----------------------3--0-0---------------------|

E|-----------------------------------3--3--3--3-|
B|------2^0--------------------------3--3--3--3-|
G|------2^0-------------------------------------|
D|----------2-0-2------0-2^0----0-222-22-22-22--|
A|----------------0-1-2-----0-------------------|
E|--0-0-----------------------3-----------------|

Repeat Chorus

Fill
E|---------------------------------------------|
B|------2-2^0-------------------2-2^0----------|
G|------2-2^0--0-6-7--0-6-7-----2-2^0-0-6-7----|
D|-----------------------------------------7-5-|
A|---------------------------------------------|
E|--0-0----------------------0-0---------------|

E|-----------------------|
B|------2-2^0------------|
G|------2-2^0------------|
D|-------------------5>--|
A|-----------------5---7-|
E|--0-0--------5^7--7----|

Skip that anoying part where it skips....

E|-12-12-12----------------------------------------------------|
B|-11-11-11----------------------------------------------------|
G|-14->(14)--12--12+(12)----------------------------14+(14)^12-|
D|-------------------------------------------------------------|
A|-------------------------------------------------------------|
E|-------------------------------------------------------------|

E|-----------------------------------------------15-|
B|---------------15---------------------------------|
G|----------12---14>--14+(14)^12-------12-12^14-12--|
D|-14--12^14--14---------------14-12^14-------------|
A|--------------------------------------------------|
E|--------------------------------------------------|

E|-12---------------------------|
B|--15-12-----------------------|
G|------14-12-------------------|
D|----------14-13-12------------|
A|------------------14-13-12----|
E|-------------------------15>0-|

E|---------------12---12-----12---14>-|
B|-15-15-15---15+--15+--+15--15+--14>-|
G|-14>14>14>--------------------------|
D|------------------------------------|
A|------------------------------------|
E|------------------------------------|

E|------------------------------------------------------------|
B|------------------------------------------------------------|
G|---------12~------------------------------------------------|
D|--14^12-----11---11-12--------------------------------------|
A|-------14------14------12-10-12-10-12>(12)-10^12^12---------|
E|---------------------------------------------------12-10-12-|

Тональность:

Это должно быть в ТОП-листе! - Топ-лист композиций



Назад
Рекомендуем посмотреть другие песни исполнителя «Red Hot Chili Peppers»:

  • Комменты Fb ()
  • Комменты ВК



Добавить в Избранное Браузера
Сохранить здесь Очистить


x

0


+
-

+
-

-

Авторизация





Зарегистрироваться

M

Дата и время

  • 00:29:56
     

Социальные ссылки


Наши приложения

  • Muzbank App Play Market
  • Muzbank Amazon App