MUZBANK


МУЗЫКАЛЬНО-ИНФОРМАЦИОННЫЙ БАНК





RRed Hot Chili Peppers • Hot (аккорды и текст - chords & lyrics)


413

Print

Видео «Hot (Red Hot Chili Peppers)»

Видео клипы к песне подбираются автоматически сайтом youtube. Возможны некоторые несоответствия клипов песне.

↑ Спрятать рекламу ↑





Bass figure 1:
G|---------------|--------------|------------------|
D|---------------|--------------|------------------|
A|-3---3---2---2-|--------------|-5---5------------|
E|---------------|-5---5---5--5-|--------3---3---3-|

G|--------------|---------------|---------------|--------------|
D|--------------|---------------|---------------|----4---5---7-|
A|-3---3------3-|-3---3---2---2-|---------------|-5------------|
E|--------------|---------------|-5---5---5--5--|--------------|

G|---------------|------------|-------------|------------|
D|---------------|------------|-------------|------------|
A|---------------|-3----------|-(3)-----3---|------------|
E|----3---3--3---|------------|-------------|-5--------5-|

G|--------------|----------------|--------------|--------------|
D|--------------|----------------|--------------|--------------|
A|--------------|-3---3---2---2--|--------------|-5---5--------|
E|----------4---|----------------|-5---5---5--5-|--------3---3-|

G|------------------|---------------|---------------|
D|------------------|---------------|---------------|
A|-3---3------3--4--|-5---5---------|-3---3-------3-|
E|------------------|---------3---3-|---------------|
Repeat 4 times

Last bar 4th time:
G|-----------|
D|-----------|
A|-3---3---3-|
E|-----------|

Тональность:

Это должно быть в ТОП-листе! - Топ-лист композиций



Назад
Рекомендуем посмотреть другие песни исполнителя «Red Hot Chili Peppers»:

  • Комменты Fb ()
  • Комменты ВК



Добавить в Избранное Браузера
Сохранить здесь Очистить


x

0


+
-

+
-

-

Авторизация





Зарегистрироваться

M

Дата и время

  • 07:39:51
     

Социальные ссылки


Наши приложения

  • Muzbank App Play Market
  • Muzbank Amazon App