MUZBANK


МУЗЫКАЛЬНО-ИНФОРМАЦИОННЫЙ БАНК





RRed Hot Chili Peppers • My Friends (аккорды и текст - chords & lyrics)


617

Print

Видео «My Friends (Red Hot Chili Peppers)»

Видео клипы к песне подбираются автоматически сайтом youtube. Возможны некоторые несоответствия клипов песне.

↑ Спрятать рекламу ↑






G  ||--------------------------|-------------------------------|
D 4||--------1517------17--15--|12----------12--15----------12-|
A 4||--------------------------|-------------------------------|
E  ||--------------------------|-------------------------------|

G|-----------------------------|-------------------------------|
D|-------------------------14--|12----------14--15----------15-|
A|10-------10--15--------------|-------------------------------|
E|-----------------------------|-------------------------------|

G|-----------------------------|-------------------------------|
D|-----------------------------|-------------------------------|
A|10-----------r2--------------|r2--------------15----------15-|
E|-----------------------------|-------------------------------|
	      My friends are so depressed

G|-----------------------------|-------------------------------|
D|17---------------------------|12----------14--15----------15-|
A|----------12h16--------1215--|-------------------------------|
E|-----------------------------|-------------------------------|
	     I    feel      the   question of your loneli-ness

G|---------------------------|---------------------------------|
D|17------15h17-h17-h17--15--|12----------12--15------------15-|
A|---------------------------|----------------------------17---|
E|---------------------------|---------------------------------|
		   Con -  fide cause I'll be on your side

G|--------------------------------|-------------------|
D|17----------12------------------|12----------12--15-|
A|----------------15--------------|-------------------|
E|--------------------------------|-------------------|
	     you know I will	     you  know I will

G|----------------------------|--------------------------------|
D|----------------------------|----------------3-----------3---|
A|10--------------0---3---4---|5-----------5-----------------5-|
E|----------------------------|--------------------------------|
		      X - girlfriend called me up

G|----------------------------|--------------------------------|
D|----------------------------|--------------------------------|
A|------------3-r-3-------3-4-|5-----------7---8-----------8-9-|
E|3-------3-----------r-5-----|--------------------------------|
	      A- lone       and   desperate on the prison phone

G|----------------------------|--------------------------------|
D|------------10---9----7-----|------------------------------3-|
A|10------10------------------|5-----------5---8-----------5---|
E|----------------------------|--------------------------------|
		   They   want to give her 7 years

G|--------------------------------|------------------|
D|--------------------------------|----------------5-|
A|----------------3---------------|3-----------3-----|
E|3-----------3-------------------|------------------|
	     For be-ing  sad	  I       love

G|------------------------------|------------------------------|
D|------------------7-7-7-7-7-7-|------------------------------|
A|0-----0-----------------------|3-----------3---5-------5---0-|
E|------------------------------|------------------------------|
 all     of  you	  hurt    by      the co -

G|------------------------------|------------------------------|
D|--------------7-7-7-7-7-7-7---|----------------5-------------|
A|------------0-----------------|3-----------3---------------3-|
E|------------------------------|------------------------------|
  ld	  So    ha -rd  &

G|---------------9---9------|--------------------------------|-|
D|---------------------------|--------------------7------------|
A|0--------------------------|3-----------3---5-------5---0-lr-|
E|---------------------------|---------------------------------|
         lo- ne -ly too	  when    you     don't know

G|------------------------14141414|--------------------------------|
D|--------------------------------|------------2---3-----------3-4-|
A|(lr4)---------------------------|5-------5-----------------------|
E|--------------------------------|--------------------------------|
 your - se - lf	       My friends are so distressed

G|--------------------------------|--------------------------------|
D|5-----------5-------------------|------------7-------------5-3---|
A|----------------3-----------3-4-|5-------5-------8-------------5-|
E|--------------------------------|--------------------------------|
	     and stand - ing      on the  brink of emptiness

G|--------------------------------|--------------------------------|
D|--------------------------------|----------------8---------------|
A|----------------3---3-5/9---7---|5-------5---7---------------3-5-|
E|3-----------3-------------------|--------------------------------|
		      No  words ...     I know of to ex -

G|--------------------------------|------------------|
D|--------------------------------|----------------5-|
A|------------3---3---------------|3-----------3-----|
E|3-------------3-----------------|------------------|
 press this emptiness	  I  love 	  all

G|--------------------------------|------------------------7--------|
D|--------------------------------|--------------------7------------|
A|0-------0-0-0-0-0-0-0-0-0-0-0-0-|3-----------3---5-----------0-lr-|
E|--------------------------------|---------------------------------|
 of you		  Hurt    by      the   cold

G|--------141414--141414--141414--|------------------------------|
D|--------------------------------|----------------5-------------|
A|(lr4)---------------------------|3-----------3---------------3-|
E|--------------5-------5-------5-|------------------------------|
		  So    ha -rd   &

G|--------------------------------|------------------------7--------|
D|------------------------g7g77--|--------------------7-----------|-|
A|0(lr3)--------------------------|3-------3-------5-----------0-lr-|
E|--------------------------------|---------------------------------|
 lo- ne -ly too	  When    you     don't know

G|--------------------------------|---------------------------------|
D|--------------------------------|---------------------------------|
A|(lr4)---------------------------|5-------5---7---8-----------8----|
E|--------------------------------|------------------------------12-|
 your  - self

G|--------------------------------|---------------------------------|
D|----------------9---10--107-----|---------------------------------|
A|10--------------------------108-|------------7---8-----------8----|
E|--------------------------------|10----------------------------10-|

G|--------------------------------|---------------------------------|
D|--------9-------9---10--10------|---------------------------------|
A|10----10----1010----------0-3-4-|5-------5---7---8-----------8----|
E|--------------------------------|------------------------------10-|

G|--------------------------------|---------------------------------|
D|----------------9-10101010------|---------------------------------|
A|10(lr2)-------10----------0-3-4-|5-------5---7---8-----------8----|
E|--------------------------------|------------------------------10-|

G|--------------------------------|------------------------------|
D|--------------------------------|------------------------------|
A|10--------------8---------------|7---7---7---7---7---7---7---7-|
E|--------------------------------|------------------------------|
		  I       -       ma  -   gine me

G|--------------------------------|------------------------------|
D|--------------------------------|------------------------11----|
A|10--10--10--10--10--10--10--10--|9---9---9---9---9---9-------9-|
E|--------------------------------|------------------------------|
		  taught  by      tra  -  gedy

G|--------------------------------|------------------------------|
D|--------10----------10------10--|------------------------------|
A|8---8-------8(lr1)------8-------|--------------------10--------|
E|--------------------------------|8---8---8---8---8-----------8-|
	         Re  -    lea	-     seis

G|--------------------------------|------------------------------|
D|--------------------------------|------------------------------|
A|--------------------9(lr1)------|------------------------------|
E|7---7---7---7---7-----------7---|1---1---1---1---1---1---1---1-|
 pea	-	ce

G|--------------------------------|--------------------------------|
D|--------------------------------|--------------------------------|
A|--------------------15(lr1)-----|5-------5---7---8-------------8-|
E|13131313131313--14----------13--|----------------------------10--|
			I heard a little girl

G|--------------------------------|--------------------------------|
D|----------------10------9---7---|----------------------------3---|
A|10----------10------------------|5-----------7---8-------------5-|
E|--------------------------------|--------5-----------------------|
	     And wha  -   t  she  said was something beautiful

G|--------------------------------|--------------------------------|
D|--------------------------------|--------------------------------|
A|------------------5-8-5-5-1012--|------------7---8-------8-10-lr-|
E|3---------5-7-8-8-------------8-|10------10------------10--------|
		      To  give your love no matter what

G|--------------------5-------5---|------------------------------|
D|----------------5-7-----5-7-----|------------------------------|
A|(lr2)---------------------------|3-----------3---2-----------3-|
E|--------------------------------|------------------------------|
	    And  what she said...  I  lo  -   ve

G|--------------------------------|------------------------------|
D|--------------------7---7------|--------------------7----------|
A|0-----------0---0---------------|3-----------3---5-------------|
E|--------------------------------|------------------------0---5-|
 all of you		  Hurt    by      the  co -

G|----------------141414141414----|-----------------|
D|----------------------------12-|----------------5-|
A|--------------------------------|3-----------3----|
E|--------------------------------|-----------------|
 ld		  So      ha  - rd  & lone-

G|--------------------------------|---------------------------------|
D|--------------------------------|------------------------7--------|
A|0-----------0---0---------------|3-----------3---5-----------0-lr-|
E|--------------------------------|---------------------------------|
 ly too		 When     you     don't know

G|--------------------------------|------------------------------|
D|--------------------------------|------------------------------|
A|(lr4)---------------------------|5---5---5---5---8---8---8---8-|
E|--------------------------------|------------------------------|
	 your-    se   -    lf

G|--------------------------------|------------------------------|
D|--------------------------------|------------------------------|
A|10--10--10--10--10/151515151515-|5---5---5---5---8---8---8---8-|
E|--------------------------------|------------------------------|

G|--------------------------------|----------------7-------7---7----|
D|--------------------------------|------------------107-10--10--10-|
A|10--10--10--10--10/151515151515-|5---5-5-5---5-5------------------|
E|--------------------------------|---------------------------------|

G|--------------------------------|--------------------------------|
D|9---9-109-109-10----------------|--------------------------------|
A|----------------7---7-9-5-9-7-9-|5-5-5-5-5---5-5-8-8-8-8-8---8-8-|
E|--------------------------------|--------------------------------|

G|--------------------------------|-------|
D|--------------------------------|-------|
A|1010101010--1010/151515151512---|5(lr4)-|
E|--------------------------------|-------|

Тональность:

Это должно быть в ТОП-листе! - Топ-лист композиций



Назад
Рекомендуем посмотреть другие песни исполнителя «Red Hot Chili Peppers»:

  • Комменты Fb ()
  • Комменты ВК



Добавить в Избранное Браузера
Сохранить здесь Очистить


x

0


+
-

+
-

-

Авторизация





Зарегистрироваться

M

Дата и время

  • 08:37:02
     

Социальные ссылки


Наши приложения

  • Muzbank App Play Market
  • Muzbank Amazon App