MUZBANK


МУЗЫКАЛЬНО-ИНФОРМАЦИОННЫЙ БАНК





RRed Hot Chili Peppers • Parallel Universe (аккорды и текст - chords & lyrics)


477

Print

Видео «Parallel Universe (Red Hot Chili Peppers)»

Видео клипы к песне подбираются автоматически сайтом youtube. Возможны некоторые несоответствия клипов песне.

↑ Спрятать рекламу ↑






С Минор!!!
 |       |       |       |
---------------------|
|4-4-4-4-4-4-4-4-4-4-4-4-4-4-4-4-|
---------------------|
---------------------|
---------------------|
---------------------|

 |       |       |       |        |       |       |       |
------------------------------------------|
|4-4-4-4-4-4-4-4-4-4-4-4-4-4-4-4-|3-3-3-3-3-3-3-3-3-3-3-3-3-3-3-3-|
------------------------------------------|
------------------------------------------|
------------------------------------------|
------------------------------------------|

 |       |       |       |        |       |       |       |
------------------------------------------|
|3-3-3-3-3-3-3-3-3-3-3-3-3-3-3-3----------------------|
------------------------------------------|
---------------------|3-3-3-3-3-3-3-3-3-3-3-3-3-3-3-3-|
------------------------------------------|
------------------------------------------|

 |       |       |       |        |       |       |       |
------------------------------------------|
---------------------|1-1-1-1-1-1-1-1-1-1-1-1-1-1-1-1-|
|0-0-0-0-0-0-0-0-0-0-0-0-0-0-0-0----------------------|
------------------------------------------|
------------------------------------------|
------------------------------------------|

 |       |       |       |
---------------------|
|0-0-0-0-0-0-0-0-0-0-0-0-0-0-0-0-|
---------------------|
---------------------|
---------------------|
---------------------|


При переходе на припев последний такт куплета
играется так.

 |       |       |       |
-----6-6-6-6-7-7-7-7-|
|0-0-0-0-0-0-0-0-----------------|
---------------------|
---------------------|
---------------------|
---------------------|


Припев Distortion ;)

 Cm                           Ab  G               Eb
 |       |       |       |        |       |       |       |
------------------------------------------|
------------------------------------------|
|5------------------------------------8---------------|
|5---------------------------6---|5---------------8---------------|
|3---------------------------6---|5---------------6---------------|
-----------------4---|3-------------------------------|

 G                                G
 |       |       |       |        |       |       |       |
------------------------------------------|
------------------------------------------|
------------------------------------------|
|5-------------------------------|5-------------------------------|
|5-------------------------------|5-------------------------------|
|3-------------------------------|3-------------------------------|


Вставка после второго припева.

 |       |       |       |
-------------------------|
-------------------------|
|8-8-8-8-8-8-------------------------|
-8-8-8-8-8-8-10-10-10-10-|
-------------------------|
-------------------------|


Bass

Куплет
 |       |       |       |
|5-5-5-5-5-5-5-5-5-5-5-5-5-5-5-5-|
---------------------|
---------------------|
---------------------|

 |       |       |       |        |       |       |       |
|5-5-5-5-5-5-5-5-5-5-5-5-5-5-5-5-|3-3-3-3-3-3-3-3-3-3-3-3-3-3-3-3-|
------------------------------------------|
------------------------------------------|
------------------------------------------|

 |       |       |       |        |       |       |       |
|3-3-3-3-3-3-3-3-3-3-3-3-3-3-3-3-|7-7-7-7-7-7-7-7-7-7-7-7-7-7-7-7-|
------------------------------------------|
------------------------------------------|
------------------------------------------|

 |       |       |       |        |       |       |       |
|8-8-8-8-8-8-8-8-8-8-8-8-8-8-8-8-|0-0-0-0-0-0-0-0-0-0-0-0-0-0-0-0-|
------------------------------------------|
------------------------------------------|
------------------------------------------|

 |           |           |       |
|12-12-12-12-10-10-10-10-8-8-8-8-7-7-7-7-|
-----------------------------|
-----------------------------|
-----------------------------|


Припев
Ритмику сами снимайте.

 |       |       |       |        |       |       |       |
------------------------------------------|
------------------------------------------|
|3---------------------------4---|3---------------6---------------|
------------------------------------------|

 |       |       |       |        |       |       |       |
------------------------------------------|
------------------------------------------|
------------------------------------------|
|3-------------------------------|3-------------------------------|


А вот и Вставка.

 |       |       |       |
|5-5-5-5-0-0-0-0-1-1-1-1---------|
-------------3-3-3-3-|
---------------------|
---------------------|


Deep inside of a parallel universe
It?s getting harder and harder
To tell what came first

Under water where thoughts can breathe Easily

Far away you were made in a sea
Just like me

Christ Im a sidewinder Im a
California King
I swear its everywhere
Its everything

Staring straight up into the sky
Oh my my a solar system that fits
In your eye Microcosm

You could die but your never dead spider web
Take a look at the stars in
Your head fields of space kid

Psychic changes are born in your heart
Entertain
A nervous breakthrough that makes us the
same
Bless your heart girl

Kill the pressure its raining on
Salty Cheeks
When you hear the beloved song
I am with you

Тональность:

Это должно быть в ТОП-листе! - Топ-лист композиций



Назад
Рекомендуем посмотреть другие песни исполнителя «Red Hot Chili Peppers»:

  • Комменты Fb ()
  • Комменты ВК



Добавить в Избранное Браузера
Сохранить здесь Очистить


x

0


+
-

+
-

-

Авторизация





Зарегистрироваться

M

Дата и время

  • 08:31:02
     

Социальные ссылки


Наши приложения

  • Muzbank App Play Market
  • Muzbank Amazon App