MUZBANK


МУЗЫКАЛЬНО-ИНФОРМАЦИОННЫЙ БАНК





RRed Hot Chili Peppers • Pea (аккорды и текст - chords & lyrics)


438

Print

Видео «Pea (Red Hot Chili Peppers)»

Видео клипы к песне подбираются автоматически сайтом youtube. Возможны некоторые несоответствия клипов песне.

↑ Спрятать рекламу ↑






G|-------------|---------------|---------------|-------------|
D|-3--x-3-3--3-|---------------|---------------|-------------|
A|-------------|-4--x-4-4--x-4-|-3--x-3-3--x-3-|-1--1-1--x-1-|
E|-------------|---------------|---------------|-------------|

G|---------------|-------------|---------------|---------------|
D|-3--x-3-3--x-3-|-------------|---------------|---------------|
A|---------------|-4--x-4-4--4-|-3--x-3-3-x--3-|-1--x-1-1--x-1-|
E|---------------|-------------|---------------|---------------|

G|---------------|-------------|-------------|---------------|
D|-3--x-3-3--x-3-|-------------|-------------|---------------|
A|---------------|-4--x-4-4--4-|-3--x-3-3--3-|-1--x-1-1--x-1-|
E|---------------|-------------|-------------|---------------|

G|---------------|-------------|-------------|---------------|
D|-3--x-3-3--x-3-|-------------|-------------|---------------|
A|---------------|-4--x-4-4--4-|-3--x-3-3--3-|-1-x--1-1--x-1-|
E|---------------|-------------|-------------|---------------|

G|-----------------|-3--x-3-3--x-3-|---------------|
D|-3/5--x-5-5--x-5-|---------------|-3--x-3-3--x-3-|
A|-----------------|---------------|---------------|
E|-----------------|---------------|---------------|

G|------------------------|---------------|-3--3-3--x-3-|
D|-3-3--x-3--x-3--x---3-4-|-5--x-5-5--x-5-|-------------|
A|------------------5-----|---------------|-------------|
E|------------------------|---------------|-------------|

G|---------------|--------------|-------------|------------|
D|-3--x-3-3--x-3-|-3-3--3--3--3-|-2--x-2-2--2-|----------3-|
A|---------------|--------------|-------------|-3--x-3-5---|
E|---------------|--------------|-------------|------------|

G|-------------|------------|---------------|------------|
D|-2--x-2-2--2-|------------|-2--x-2-2--x-2-|----------3-|
A|-------------|-3--x-3-5---|---------------|-3----3-5---|
E|-------------|----------5-|---------------|------------|

G|--------------|---------------|-------------|----------------|
D|-2-x-2-2--x-2-|-0-x-0-3-3-x-2-|-2-2-2-2-2-2-|-0--x-0-3-3-x-2-|
A|--------------|---------------|-------------|----------------|
E|--------------|---------------|-------------|----------------|

G|----------------|-----------------|----------------|
D|--2-2-2-2-2-2-2-|-0-0-0-0-3-3-3-2-|--2-2-2-2-2-2-2-|
A|----------------|-----------------|----------------|
E|----------------|-----------------|----------------|

G|-----------------|--------|
D|-0-0-0-0-3-3-3-2-|--------|
A|-----------------|--------|
E|-----------------|--0-0-0-|

Тональность:

Это должно быть в ТОП-листе! - Топ-лист композиций



Назад
Рекомендуем посмотреть другие песни исполнителя «Red Hot Chili Peppers»:

  • Комменты Fb ()
  • Комменты ВК



Добавить в Избранное Браузера
Сохранить здесь Очистить


x

0


+
-

+
-

-

Авторизация





Зарегистрироваться

M

Дата и время

  • 07:38:33
     

Социальные ссылки


Наши приложения

  • Muzbank App Play Market
  • Muzbank Amazon App