MUZBANK


МУЗЫКАЛЬНО-ИНФОРМАЦИОННЫЙ БАНК





RRed Hot Chili Peppers • Phat Dance (аккорды и текст - chords & lyrics)


486

Print

Видео «Phat Dance (Red Hot Chili Peppers)»

Видео клипы к песне подбираются автоматически сайтом youtube. Возможны некоторые несоответствия клипов песне.

↑ Спрятать рекламу ↑






Intro&Bridge                        1 ending  2 ending
G|----------------------------------|--------|-------|
D|----------------------------------|--------|-------|
A|-7-7-7-7-7-9/10-10-10-9-7-7-7-7-7-|-5-5-6/-|-5-5-5-|
E|----------------------------------|--------|-------|

Verse
G|-----------------------------------|
D|-----------------------------------|
A|-0h2-0h2-33333333-0h2-0h2----------|
E|--------------------------33333333-|

G|--------------------------------|
D|--------------------------------|
A|-0h2-0h2-0X3---0h2-0h2-----5553-|
E|-----------------------3333-----|

Chorus

G|-----|
D|-----|
A|-----|
E|-22--| Repeat 16 times then slide up to the 14th fret

Interlude
G|--------------------------------------------------|
D|------------------12h14----------------12h14------|
A|--19-17-16--12h14-------19-17-16--12h14-----12h14-|
E|-0--0--0--0------0-----0--0--0--0-----------------|

G|--------------------------------------------------|
D|------------------10h12---------------10h12-------|
A|--17-15-14--10h12-------17-15-14--10h12-----10h12-|
E|-0--0--0--0------0-----0--0--0--0-----------------|

G|---------------------------------------------|
D|-----------------8h10---------------8h10-----|
A|--15-13-12--8h10------15-13-12--8h10----8h10-|
E|-0--0--0--0-----0----0--0--0--0--------------|

G|--------------------------------------------------|
D|------------------10h12---------------10h12-------|
A|--17-15-14--10h12-------17-15-14--10h12-----10h12-|
E|-0--0--0--0------0-----0--0--0--0-----------------|

G|--------------------------------------------------|
D|------------------12h14----------------12h14------|
A|--19-17-16--12h14-------19-17-16--12h14-----12h14-|
E|-0--0--0--0------0-----0--0--0--0-----------------|

G|--------------------------------------------------|
D|------------------10h12---------------10h12-------|
A|--17-15-14--10h12-------17-15-14--10h12-----10h12-|
E|-0--0--0--0------0-----0--0--0--0-----------------|

G|---------------------------------------------|
D|-----------------8h10---------------8h10-----|
A|--15-13-12--8h10------15-13-12--8h10----8h10-|
E|-0--0--0--0-----0----0--0--0--0--------------|

G|--------------------------------|
D|------------------10h12---------|
A|--17-15-14--10h12---------------|
E|-0--0--0--0------0-----12-12-12-|

Тональность:

Это должно быть в ТОП-листе! - Топ-лист композиций



Назад
Рекомендуем посмотреть другие песни исполнителя «Red Hot Chili Peppers»:

  • Комменты Fb ()
  • Комменты ВК



Добавить в Избранное Браузера
Сохранить здесь Очистить


x

0


+
-

+
-

-

Авторизация





Зарегистрироваться

M

Дата и время

  • 13:04:14
     

Социальные ссылки


Наши приложения

  • Muzbank App Play Market
  • Muzbank Amazon App