MUZBANK


МУЗЫКАЛЬНО-ИНФОРМАЦИОННЫЙ БАНК





RRed Hot Chili Peppers • Savior (аккорды и текст - chords & lyrics)


534

Print

Видео «Savior (Red Hot Chili Peppers)»

Видео клипы к песне подбираются автоматически сайтом youtube. Возможны некоторые несоответствия клипов песне.

↑ Спрятать рекламу ↑





Intro

e|13/(15)-13-10-13-10-13/(15)|---------------------------------|
B|---------------------------|--------15-----------------------|
G|---------------------------|12/(14)----(14)12---10-12-10/(12)|
D|---------------------------|------------------12-------------|
A|---------------------------|---------------------------------|
E|---------------------------|---------------------------------|

Dmin, C, G

Dusting off your savior
Well you were always my favorite always my
Man. All in a hand

To celebrate you is greater now that I

E

Can. Always my man

Dmin, C, G

Now you see what I came for
No one here is to blame for
Misunderstand. All in a hand
Just like you 'cause you made me all that I

E

Am. All in a hand

Variation

Guitar 1

e|-----------------------------|-------------------------------|
B|----3-----3------3-----3---3-|-----3-----3-------3-----3---3-|
G|-----------------------------|-------------------------------|
D|-0----0----------------------|-0-----0-----------------------|
A|--------3---3----------------|---------3---3---------1---1---|
E|--------------3----3-3---3---|---------------3-----3---------|

Guitar 2 (not first time)

e|-----3-----1-----------1-3-----|--3-----1-----------1-3-----|
B|-------------------3-------1-3-|----------------3-------1-3-|

A butterfly that flaps its wings
Affecting almost everything
The more I hear the orchestra
The more I have something to bring
And now I see you in a beautiful
And different light
He's just a man and any damage done
Will be all right
Call out my name
Call and I came

Dmin, C, G

Dusting off your savior
Forgiving any behavior he's just a
Man. All in a hand
Your hero's destined to waver anyone

E

Can. Always my man

Dmin, C, G

I would never betray you
Look at me who could raise you face in the
Sand. Safe in your hand
You were always my favorite always my

Dmin, C, G

Man. All in a hand

Variation

We are the red hots and
We're loving up the love me nots
The flowers in your flower pots
Are dancing on the table tops
And now I see you in a beautiful
And different light
He's just a man and everything he does
Will be all right
Call out my name
Call and I came

Dmin, C, G

Dusting off your savior
The life that you have narrated
You were my man

Тональность:

Это должно быть в ТОП-листе! - Топ-лист композиций



Назад
Рекомендуем посмотреть другие песни исполнителя «Red Hot Chili Peppers»:

  • Комменты Fb ()
  • Комменты ВК



Добавить в Избранное Браузера
Сохранить здесь Очистить


x

0


+
-

+
-

-

Авторизация





Зарегистрироваться

M

Дата и время

  • 12:11:46
     

Социальные ссылки


Наши приложения

  • Muzbank App Play Market
  • Muzbank Amazon App