MUZBANK


МУЗЫКАЛЬНО-ИНФОРМАЦИОННЫЙ БАНК





RRed Hot Chili Peppers • Sickamickanico (аккорды и текст - chords & lyrics)


342

Print

Видео «Sickamickanico (Red Hot Chili Peppers)»

Видео клипы к песне подбираются автоматически сайтом youtube. Возможны некоторые несоответствия клипов песне.

↑ Спрятать рекламу ↑





Verse:(Very Fast)                     Pre-Chorus:(Fast)
E|-------------------------------| E|-------------------------|
B|-------------------------------| B|-------------------------|
G|------3-3-3---3-3-3---3-3-3---5| G|4-4-4-4-4-4-4-4-7-x-7-x-7|
D|5-5-5-3-3-3---3-3-3---3-3-3---5| D|4-4-4-4-4-4-4-4-7-x-7-x-7|
A|5-5-5-1-1-1-x-1-1-1-x-1-1-1-x-3| A|2-2-2-2-2-2-2-2-5-x-5-x-5|
E|3-3-3--------------------------| E|-------------------------|

Chorus:(Fast)
E|--------------------------------------------------------|
B|--------------------------------------------------------|
G|--------------------------------------------------------|
D|-9-9-9-x-9-x-9-x-x-x-10-10---9-9-9-x-9-x-9-x-x-x-12--10-|
A|-9-9-9-x-9-x-9-x-x-x-10-10---9-9-9-x-9-x-9-x-x-x-12--10-|
E|-7-7-7-x-7-x-7-x-x-x--8--8---7-7-7-x-7-x-7-x-x-x-10---8-|

Bridge:(Slow)
E|--------------------------------------|
B|--------------------------------------|
G|-----------9-----7--------------------|
D|----------------------9-----7---------|
A|-----------------------------------10-|
E|-0--0--0------------------------------|

Outro:(Added to the end of the chorus)
E|--------------------------------------------------|
B|--------------------------------------------------|
G|--------------------------------------------------|
D|-12-12-12-12-12-12-12-12-12-12-12-12-12-12-12--10-|
A|-12-12-12-12-12-12-12-12-12-12-12-12-12-12-12--10-|
E|-10-10-10-10-10-10-10-10-10-10-10-10-10-10-10---8-|

Тональность:

Это должно быть в ТОП-листе! - Топ-лист композиций



Назад
Рекомендуем посмотреть другие песни исполнителя «Red Hot Chili Peppers»:

  • Комменты Fb ()
  • Комменты ВК



Добавить в Избранное Браузера
Сохранить здесь Очистить


x

0


+
-

+
-

-

Авторизация





Зарегистрироваться

M

Дата и время

  • 07:40:33
     

Социальные ссылки


Наши приложения

  • Muzbank App Play Market
  • Muzbank Amazon App