MUZBANK


МУЗЫКАЛЬНО-ИНФОРМАЦИОННЫЙ БАНК





RRed Hot Chili Peppers • What Is Soul (аккорды и текст - chords & lyrics)


519

Print

Видео «What Is Soul (Red Hot Chili Peppers)»

Видео клипы к песне подбираются автоматически сайтом youtube. Возможны некоторые несоответствия клипов песне.

↑ Спрятать рекламу ↑





E|------------------------------------------------------|
B|------------------------------------------------------|
G|------------------------------------------------------|
D|---------------------------------3--------------------|
A|---3--3-5-------------------3-------5--3--------------|
E|-5--5------x-x--x-x-x-x---5---5-------------x-x-x-x-x-|

E|-------------------------------------------------|
B|-------------------------------------------------|
G|-------------------------------------------------|
D|-----------------------------------------3-------|
A|------3-----3--5-------------------3--5-----5--3-|
E|---5-----5---------1---3-----3-4-5---------------|

This is the main riff, and is the same on bass.
In between the riffy bits, just

play little funk fills, favourites including the slide down of:

E|-----|
B|-----|
G|-----|
D|--12-|
A|--13-|
E|-----|

or little in-key twiddles:

E|------------------------------|
B|------------------------------|
G|--7---5-----------------------|
D|----------------------5--7--5-|
A|------------------------------|
E|------------------------------|

or simply rest your fingers over
the fretboard without hitting notes and strum funkily,

but this is better with a wa-wa pedal,
as is the rest of the song. Anyway, Frusciante

quickly sets off in the song to play a couple octaves higher:

E|----------------------10--------------------------13--10-----|
B|--10---13------10--13-----x-x-x-x--x---10--13-10----------13-|
G|-------------------------------------------------------------|
D|-------------------------------------------------------------|
A|-------------------------------------------------------------|
E|-------------------------------------------------------------|

E|---------------------10-----------------------13--10-----|
B|--10--13---10----13---------------10--13--10----------13-|
G|---------------------------------------------------------|
D|---------------------------xxxxx-------------------------|
A|---------------------------------------------------------|
E|---------------------------------------------------------|

E|--------------------10----------------------------13--10-----|
B|--10--13--10---13-------------------------11--13----------13-|
G|-----------------------10--12---12-13-14---------------------|
D|-------------------------------------------------------------|
A|-------------------------------------------------------------|
E|-------------------------------------------------------------|

Тональность:

Это должно быть в ТОП-листе! - Топ-лист композиций



Назад
Рекомендуем посмотреть другие песни исполнителя «Red Hot Chili Peppers»:

  • Комменты Fb ()
  • Комменты ВК



Добавить в Избранное Браузера
Сохранить здесь Очистить


x

0


+
-

+
-

-

Авторизация





Зарегистрироваться

M

Дата и время

  • 23:45:56
     

Социальные ссылки


Наши приложения

  • Muzbank App Play Market
  • Muzbank Amazon App