MUZBANK


МУЗЫКАЛЬНО-ИНФОРМАЦИОННЫЙ БАНК





RRed Hot Chili Peppers • Zephyr Song (аккорды и текст - chords & lyrics)


516

Print

Видео «Zephyr Song (Red Hot Chili Peppers)»

Видео клипы к песне подбираются автоматически сайтом youtube. Возможны некоторые несоответствия клипов песне.

↑ Спрятать рекламу ↑





|-----3-------1-|---------------|-----0---------|-------------0-|
|---1-------0---|-----0-------1-|---1---------3-|-----0-------1-|
|-0-------0-----|---0-------2---|-2---------4---|---0-------2---|
|---------------|-2-------3-----|---------5-----|-2-------3-----|
|---------------|---------------|---------------|---------------|
|---------------|---------------|---------------|---------------|
INTRO

|-----0-3--1--0-|-------1-0-----|---------------|---------------|
|---1-----------|-----3-----3---|-----0-3--1--0-|-----1-1/5-3-1-|
|-2-------------|---4-----------|---0-----------|---2-----------|
|---------------|-5-------------|-2-------------|-3-------------|
|---------------|---------------|---------------|---------------|
|---------------|---------------|---------------|---------------|


|-----0-3--5--0-|-------1-0-----|---------------|---------------|
|---1-----------|-----3-----3---|-----0-0--3--1-|-----1-------1-|
|-2-------------|---4-----------|---0-----------|---2-------2---|
|---------------|-5-------------|-2-------------|-3-------3-----|
|---------------|---------------|---------------|---------------|
|---------------|---------------|---------------|---------------|
VERSE

 D               D               G               A
|---------------|---------------|---------------|---0-----0-----|
|-----3----3----|------3--------|-----3-----3---|---------------|
|---2----2------|2---2------2---|---0-----0-----|-2-----2---2---|
|-0-----------0-|--0------0---0-|-0-------------|-------------2-|
|---------------|---------------|---------------|---------------|
|---------------|---------------|---------------|---------------|
CHORUS

|-12-10-12-12--12--10--12-------------10-8-10-10--10--10--12-------------12--
|-------------------------12b13r12-10------------------------12b13r12-10-----
|----------------------------------------------------------------------------
|----------------------------------------------------------------------------
|----------------------------------------------------------------------------
|----------------------------------------------------------------------------


-10-12-12---10--12--------------10-8-10-10--10-8-10-10---------------|
-------------------12b-13r12-10------------------------12b13r12-12-8-|
---------------------------------------------------------------------|
---------------------------------------------------------------------|
---------------------------------------------------------------------|
---------------------------------------------------------------------|
SOLO

-10-------10-------------10-------10-------------10-------10-------------12---
-------10-------10----10-------10-------10----12-------12-------12----14------
----11-------11----11-------11-------11----12-------12-------12----14---------
------------------------------------------------------------------------------
------------------------------------------------------------------------------
------------------------------------------------------------------------------


-------12-------|----|-------10-------10-------12-----10--------10-------10---
----14-------14-|----|----10-------10-------10---------------10-------12------
-14-------14----|----|-11-------11-------11--------11-----11-------12---------
----------------|-2x-|--------------------------------------------------------
----------------|----|--------------------------------------------------------
----------------|----|--------------------------------------------------------


-------10-------------12-------12-------------10-------10-------12-----10-----
----12-------12----14-------14-------14----10-------10-------10---------------
-12-------12----14-------14-------14----11-------11-------11--------11-----11-
------------------------------------------------------------------------------
------------------------------------------------------------------------------
------------------------------------------------------------------------------


----10-------10-------10---------------12-10--|
-10-------12-------12-------12-----14-----10--|
-------12-------12-------12----14---------11--|
----------------------------------------------|
----------------------------------------------|
----------------------------------------------|

Тональность:

Это должно быть в ТОП-листе! - Топ-лист композиций



Назад
Рекомендуем посмотреть другие песни исполнителя «Red Hot Chili Peppers»:

  • Комменты Fb ()
  • Комменты ВК



Добавить в Избранное Браузера
Сохранить здесь Очистить


x

0


+
-

+
-

-

Авторизация





Зарегистрироваться

M

Дата и время

  • 00:09:07
     

Социальные ссылки


Наши приложения

  • Muzbank App Play Market
  • Muzbank Amazon App