MUZBANK


МУЗЫКАЛЬНО-ИНФОРМАЦИОННЫЙ БАНК





RRitchie Blackmore • To Prague (аккорды и текст - chords & lyrics)


525

Print

Видео «To Prague (Ritchie Blackmore)»

Видео клипы к песне подбираются автоматически сайтом youtube. Возможны некоторые несоответствия клипов песне.

↑ Спрятать рекламу ↑





E|---------0h7p0----|--------------0-----------|
B|-------0-------10-|-8h10p8p7---8---0---------|
G|-----9------------|----------9-------0-4h5p4-|
D|---9--------------|--------------------------|
A|-7----------------|--------------------------|
E|------------------|--------------------------|

E|---------0-------|
B|---0---0---0-----|
G|-----4-------4---|
D|-7-------------7-|
A|-----------------|
E|-----------------|

E|------------------|---------0h7p0----|
B|------------------|-------0-------10-|
G|------------------|-----9------------|
D|-5h7p5p4---4------|---9--------------|
A|---------6---7----|-7----------------|
E|------------------|------------------|

E|--------------0-----------|
B|-8h10p8p7---8---0---------|
G|----------9-------0-4h5p4-|
D|--------------------------|
A|--------------------------|
E|--------------------------|

E|---------0-------|---------------|
B|---0---0---0-----|---------------|
G|-----4-------4---|---------------|
D|-7-------------7-|-5h7p5p4---4---|
A|-----------------|---------6---7-|
E|-----------------|---------------|

E|-------------12-15-14-12-|-11h14p11----------------|
B|----------13-------------|----------12-------------|
G|-------12----------------|-------------11----------|
D|----14-------------------|----------------13-------|
A|-15----------------------|-------------------14----|
E|-------------------------|----------------------11-|

E|-----------------|-----------------|
B|-----------------|-----------------|
G|---------------2-|---5-4h5p4h5p4---|
D|---------2-4-5---|---------------7-|
A|-------2---------|-0---------------|
E|-0-2-3-----------|-----------------|

E|---------------5-|-3h5p3p0-------0-----|
B|-----4-------0---|---------5-0-3---5---|
G|---4---4---5-----|-------------------7-|
D|---------4-------|---------------------|
A|-2---------------|---------------------|
E|-----------------|---------------------|

E|-------------------------|--------------|
B|-------------0-----------|--------------|
G|-5-4h5p4---4---4---------|--------------|
D|---------7-------7-5h7p5-|-4---4--------|
A|-------------------------|---7---6-7----|
E|-------------------------|--------------|

E|-----------------|---------------0-|
B|-------0-------0-|-----------0-----|
G|-----0-------5---|---0---0-----0---|
D|---4-------4-----|-----4---5-------|
A|-6-------6-------|-7---------------|
E|-----------------|-----------------|

E|-----------------|---------2-3-2h3p2h0-|
B|---5-------------|-------3-------------|
G|-------7---5---4-|-----2---------------|
D|-----------------|---0-----------------|
A|-0---0---0---0---|---------------------|
E|-----------------|-2-------------------|

E|-----------------|-------------------|
B|-------0-------0-|-------------------|
G|-----0-------5---|-------------0-2p=-|
D|---4-------4-----|---------2-4-------|
A|-6-------6-------|-------2-----------|
E|-----------------|-0-2-3-------------|

E|---------------------|---------3-2h3p2p0---|
B|-----------0---------|-----3-------------0-|
G|-0-------0---2h4p2p0-|---2---2-------------|
D|---2---2-------------|-0-------------------|
A|-----3---------------|---------------------|
E|---------------------|---------------------|

E|---------0-------|---|
B|-------7---7-----|---|
G|-----8-------8---|---|
D|---9-----------9-|---|
A|-----------------|---|
E|-7---------------|-7-|

E|---------0h7p0----|--------------0-----------|
B|-------0-------10-|-8h10p8p7---8---0---------|
G|-----9------------|----------9-------0-4h5p4-|
D|---9--------------|--------------------------|
A|-7----------------|--------------------------|
E|------------------|--------------------------|

E|---------0-------|
B|---0---0---0-----|
G|-----4-------4---|
D|-7-------------7-|
A|-----------------|
E|-----------------|

E|------------------|---------0h7p0----|
B|------------------|-------0-------10-|
G|------------------|-----9------------|
D|-5h7p5p4---4------|---9--------------|
A|---------6---7----|-7----------------|
E|------------------|------------------|

E|--------------0-----------|
B|-8h10p8p7---8---0---------|
G|----------9-------0-4h5p4-|
D|--------------------------|
A|--------------------------|
E|--------------------------|

E|---------0-------|---------------|
B|---0---0---0-----|---------------|
G|-----4-------4---|---------------|
D|-7-------------7-|-5h7p5p4---4---|
A|-----------------|---------6---7-|
E|-----------------|---------------|

E|-------------12-15-14-12-|-11h14p11----------------|
B|----------13-------------|----------12-------------|
G|-------12----------------|-------------11----------|
D|----14-------------------|----------------13-------|
A|-15----------------------|-------------------14----|
E|-------------------------|----------------------11-|

E|-----------------|-----------------|
B|-----------------|-----------------|
G|---------------2-|---5-4h5p4h5p4---|
D|---------2-4-5---|---------------7-|
A|-------2---------|-0---------------|
E|-0-2-3-----------|-----------------|

E|---------------5-|-3h5p3p0-------0-----|
B|-----4-------0---|---------5-0-3---5---|
G|---4---4---5-----|-------------------7-|
D|---------4-------|---------------------|
A|-2---------------|---------------------|
E|-----------------|---------------------|

E|-------------------------|-----------|-----------------|
B|-------------0-----------|-----------|-----------1p0---|
G|-5-4h5p4---4---4---------|-----------|---------2-----2-|
D|---------7-------7-5h7p5-|-4---4-----|---1-2-4---------|
A|-------------------------|---7---6-7-|-2---------------|
E|-------------------------|-----------|-----------------|

E|-------0-8-7p0-|
B|-----7---------|
G|---8-----------|
D|-9-------------|
A|---------------|
E|---------------|

            Q=80
E|-----------0-11-12-14-|
B|--------13------------|
G|-----11---------------|
D|--13------------------|
A|----------------------|
E|----------------------|

E|-15-14h15p14-12----------------------|----------------*-|
B|----------------15-13-12h13p12----12-|------12-10----9----*-|
G|-------------------------------14----|------------11------*-|
D|-------------------------------------|--------------------*-|
A|-------------------------------------|--------------------*-|
E|--0----------------------------------|---------------0----*-|

Тональность:

Это должно быть в ТОП-листе! - Топ-лист композиций



Назад
Рекомендуем посмотреть другие песни исполнителя «Ritchie Blackmore»:

  • Комменты Fb ()
  • Комменты ВК



Добавить в Избранное Браузера
Сохранить здесь Очистить


x

0


+
-

+
-

-

Авторизация





Зарегистрироваться

M

Дата и время

  • 22:24:41
     

Социальные ссылки


Наши приложения

  • Muzbank App Play Market
  • Muzbank Amazon App