MUZBANK


МУЗЫКАЛЬНО-ИНФОРМАЦИОННЫЙ БАНК





RRolling Stones • Black (аккорды и текст - chords & lyrics)


608

Print

Видео «Black (Rolling Stones)»

Видео клипы к песне подбираются автоматически сайтом youtube. Возможны некоторые несоответствия клипов песне.

↑ Спрятать рекламу ↑





E||--------------|------------------|------------------|
B||--------------|------------------|------------------|
G||--------------|------------------|-1----1----1----1-|
D||--------------|--2----2---2---2--|-2----2----2----2-|
A||--------------|------------------|------------------|
E||--0--0--0--0--|--0----0---0---0--|-0----0----0----0-|

E|-----------0-----0-----0-|------0-5---0-7---0-8---0--|
B|--0------0-----0-----0---|----1----------------------|
G|--1----------------------|--2-------5-----5-----5----|
D|--2----0-----------------|--------7-----7-----7------|
A|-------------3-----2-----|--0------------------------|
E|--0----------------------|---------------------------|

E|-10----0-8---0-7---0-5---0-|-5---0-4---0-5---0-7---0-|
B|---------------------------|---0-----0-----0-----0---|
G|-----------5-----5-----5---|-------------------------|
D|----10---7-----7-----7-----|-------2-----------6-----|
A|-12------------------------|-7-----------7-----------|
E|---------------------------|-0-----------------------|

E|---5----4---0-----0-----0-|------0-5---0-7---0-8---0-|
B|----------0-----0-----0---|----1---------------------|
G|--------------------------|--2-------5-----5-----5---|
D|---5----0-----------------|--------7-----7-----7-----|
A|--------------3-----2-----|--0-----------------------|
E|--------------------------|--------------------------|

E|-10----0-8---0-7---0-5---0-|-5---0-4---0-5---0-7---0-|
B|---------------------------|---0-----0-----0-----0---|
G|-----------5-----5-----5---|-------------------------|
D|----10---7-----7-----7-----|-------2-----------6-----|
A|-12------------------------|-7-----------7-----------|
E|---------------------------|-0-----------------------|

E|--5--7-5-4---0-----0-----0-|--------5-----3-----3----|
B|-----------0-----0-----0---|--------1-----0-----0----|
G|---------------------------|-----2--5--2-----0--4--0-|
D|--5------2-----------------|-------------------------|
A|---------------2-----------|--0----------------------|
E|---------------------0-----|--------------3----------|

E|--------------------------|--0-----0-----0-----------|
B|--1-----1-----3-----3-----|--------1-----1--3--1-----|
G|--------0-----0--0--4--0--|--2--2-----2-----2--5--2--|
D|--2--2--2--2--------5-----|--------------------------|
A|--3-----------------------|--0-----------------------|
E|--------------3-----------|--------------------------|

E|--0-----------------------|--------5-----3-----3-----|
B|--------1-----1-----1-----|--------1-----0-----0-----|
G|--2--2-----2-----2-----2--|-----2--5--2-----0--4--0--|
D|--------------------------|--------------------------|
A|--0-----------------------|--0-----------------------|
E|--------------------------|--------------3-----------|

E|-----------------|-0---0---0----------|-0------0-----0-----0-|
B|-1---1---3---3---|-----3---1--3--1----|------0-----0-----0---|
G|-----0---0-0-4-0-|-2-2---2----2--5--2-|-1--------------------|
D|-2-2-2-2-----5---|--------------------|----0-----------------|
A|-3---------------|--------------------|----------3-----2-----|
E|---------3-------|-2-------1----------|-0--------------------|

E|-----0-5---0-7---0-8---0-|-10----0-8---0-7---0-5---0-|
B|---1---------------------|---------------------------|
G|-2-------5-----5-----5---|-----------5-----5-----5---|
D|-------7-----7-----7-----|----10---7-----7-----7-----|
A|-0-----------------------|-12------------------------|
E|-------------------------|---------------------------|

E|5---0-4---0-5-0-7---0|5-4---0----0----0|----0-5--0-7--0-8---0|
B|--0-----0----0----0--|----0----0----0--|--1------------------|
G|---------------------|-----------------|2-------5----5----5--|
D|------2---------6----|5-0--------------|------7----7----7----|
A|7-----------7--------|--------3----2---|0--------------------|
E|0--------------------|-----------------|---------------------|

E|-10----0-8---0-7---0-5---0-|-5---0-4---0-5---0-7---0-|
B|---------------------------|---0-----0-----0-----0---|
G|-----------5-----5-----5---|-------------------------|
D|----10---7-----7-----7-----|-------2-----------6-----|
A|-12------------------------|-7-----------7-----------|
E|---------------------------|-0-----------------------|

E|--5--7-5-4---0-----0-----0-|--------5-----3-----3----|
B|-----------0-----0-----0---|--------1-----0-----0----|
G|---------------------------|-----2--5--2-----0--4--0-|
D|--5------2-----------------|-------------------------|
A|---------------2-----------|--0----------------------|
E|---------------------0-----|--------------3----------|

E|--------------------------|--0-----0-----0-----------|
B|--1-----1-----3-----3-----|--------1-----1--3--1-----|
G|--------0-----0--0--4--0--|--2--2-----2-----2--5--2--|
D|--2--2--2--2--------5-----|--------------------------|
A|--3-----------------------|--0-----------------------|
E|--------------3-----------|--------------------------|

E|--0-----------------------|--------5-----3-----3-----|
B|--------1-----1-----1-----|--------1-----0-----0-----|
G|--2--2-----2-----2-----2--|-----2--5--2-----0--4--0--|
D|--------------------------|--------------------------|
A|--0-----------------------|--0-----------------------|
E|--------------------------|--------------3-----------|

E|--------------------------|--0-----0-----0-----------|
B|--1-----1-----3-----3-----|--------3-----1--3--1-----|
G|--------0-----0--0--4--0--|--2--2-----2-----2--5--2--|
D|--2--2--2--2--------5-----|--------------------------|
A|--3-----------------------|--------------------------|
E|--------------3-----------|--2-----------1-----------|

E|--0--------0-----0-----0-|--0---||
B|---------0-----0-----0---|--10--||
G|--1----------------------|--5---||
D|-------0-----------------|--10--||
A|-------------3-----2-----|--12--||
E|--0----------------------|--5---||

Тональность:

Это должно быть в ТОП-листе! - Топ-лист композиций



Назад
Рекомендуем посмотреть другие песни исполнителя «Rolling Stones»:

  • Комменты Fb ()
  • Комменты ВК



Добавить в Избранное Браузера
Сохранить здесь Очистить


x

0


+
-

+
-

-

Авторизация





Зарегистрироваться

M

Дата и время

  • 23:14:12
     

Социальные ссылки


Наши приложения

  • Muzbank App Play Market
  • Muzbank Amazon App