MUZBANK


МУЗЫКАЛЬНО-ИНФОРМАЦИОННЫЙ БАНК





RRolling Stones • If You Can`t Rock Me (аккорды и текст - chords & lyrics)


485

Print

Видео «If You Can`t Rock Me (Rolling Stones)»

Видео клипы к песне подбираются автоматически сайтом youtube. Возможны некоторые несоответствия клипов песне.

↑ Спрятать рекламу ↑





Here`s a tab I`d like you try out.  It`s the riff in the middle
of `If You Can`t Rock Me`. The song is in open G. Let me know
if the tab works for you.  This is a really cool riff to know.
I sprinkle parts of this around liberally through a lot of
songs.

   &  1  &  2  &  3  &  4  &  1  &  2  &  3  &  4
D|------------------------------5-----------5-|
B|-3--4--0--5-------------------3-----------3-|
G|-4--5--0--5--------0------------------------|
D|-------------2--3--0------------------------|
G|-------------3--4---------------------------|
D|--------------------------------------------|

I want to work the whole song out when I get a chance but this
riff *really* is the best part of the song.  Hopefully my editor
doesn`t do more weird changes to what I really wrote as I save
this letter.


/LYRICS:/
The band's on stage and it's one of those nights, oh yeah
The drummer thinks that he is dynamite, oh yeah
You lovely ladies in your leather and lace
A thousand lips I would love to taste, I've got one heart and it hurts like hell

If you can't rock me somebody will
If you can't rock me somebody will

Now, who's that black girl in the bright blue hair? Oh yeah
Now, don't you know that it's rude to stare? Oh yeah
I'm not so green but I'm feelin' so fresh, I simply like to put her to the test
She's so alive and she's dressed to kill, but

If you can't rock me somebody will
If you can't rock me somebody will
If you can't rock me somebody will
If you can't rock me somebody will

Now I ain't lookin' for no pretty face, oh no
Or for some hooker workin' roughish trade
And there ain't nothing like a perfect mate
And I ain't lookin' for no wedding cake

But I been talkin' 'bout it much too long
I think I better sing just one more song
I've got one heart and it hurts like hell
I'm simply dying for some thrills, spills, oh yeah

If you can't rock me, if you can't rock me
Somebody will, somebody will, somebody will
If you can't rock me
Well, well, well, well


/Guitar tab:/

Tuning (low to high): DGDGBD

Chords used:

D        x7777x
C        x5555x
F/C      x5756x
G        x00000

Intro:

     D     C G
D|-----------0---|
B|---7-7---5-0---|
G|---7-7---5-0---| play 4 times
D|---7-7---5-0---|
G|---7-7---5-0---|
D|---------------|

Verse:

         F/C
D|------------------------------|
B|---5---6-6--5---5-5--6-6--5---|
G|---5---5-5--5---5-5--5-5--5---|
D|---5---7-7--5---5-5--7-7--5---|
G|---5---5-5--5---5-5--5-5--5---|
D|------------------------------|
  The band's on stage . . .

D|-----------0-----------0---|
B|---7-7---5-0---7-7---5-0---|
G|---7-7---5-0---7-7---5-0---|
D|---7-7---5-0---7-7---5-0---|
G|---7-7---5-0---7-7---5-0---|
D|---------------------------|
  Oh yeah!

G                         C                D
You lovely ladies in your leather and lace
G                       C             D
A thousand lips I would love to taste
G                         C
I've got one heart and it hurts like hell

Chorus:

Same as intro

Break:

D|-------------------5-5---|
B|---2/3-0-5---------3-3---|
G|---3/4-0-5-3/4-0---------| play 4 times
D|---------5-2/3-0---------|
G|-------------------------|
D|-------------------------|

Тональность:

Это должно быть в ТОП-листе! - Топ-лист композиций



Назад
Рекомендуем посмотреть другие песни исполнителя «Rolling Stones»:

  • Комменты Fb ()
  • Комменты ВК



Добавить в Избранное Браузера
Сохранить здесь Очистить


x

0


+
-

+
-

-

Авторизация





Зарегистрироваться

M

Дата и время

  • 11:26:59
     

Социальные ссылки


Наши приложения

  • Muzbank App Play Market
  • Muzbank Amazon App