MUZBANK


МУЗЫКАЛЬНО-ИНФОРМАЦИОННЫЙ БАНК





RRolling Stones • Rocks Off (аккорды и текст - chords & lyrics)


473

Print

Видео «Rocks Off (Rolling Stones)»

Видео клипы к песне подбираются автоматически сайтом youtube. Возможны некоторые несоответствия клипов песне.

↑ Спрятать рекламу ↑






intro:
 3 times				     2 times
E|--------------------------------:||-----------------------:||
B|---9--9--10--9------------------:||---9--9--9------9------:||
G|---9--9--9---9------------------:||---9--9--9------9------:||
D|---9--9--11--9------------9--9--:||---9--9--9--11-----11--:||
A|-----------------9--9--9--9--9--:||-----------------------:||
E|-----------------6--6--6--7--7--:||-----------------------:||

fill 1:
E|-------------------------------------|
B|---9--9--9------9-------9---10--9----|
G|---9--9--9------9-------9---9---9----|
D|---9--9--9--11-----11---9---11--9----|
A|-------------------------------------|
E|-------------------------------------|

chorus:
 8 times
E|---------------:||-------|-------|
B|---4--4--5--4--:||---2---|---9---|
G|---4--4--4--4--:||---2---|---9---|
D|---4--4--6--4--:||---2---|---9---|
A|---------------:||-------|-------|
E|---------------:||-------|-------|

chorus fill: (Bobby Keys` and Jim Price`s parts actually)

E|--------------------|
B|--------------------|
G|---13--13--11--10---|
D|---15--15--13--11---|
A|--------------------|
E|--------------------|

That is all tab I will supply you with.
Now on to lyrics and chords

verse:
	w/ fill 1	w/ fill 1
| A | B | E | E | A | B | E | E | A | A |

| A | A | B | B | B | B | A | E |

chorus:
w/ chorus part & fill when you feel like it
| B | B | B | B | B | B | B | B | A | E |

bridge:

| F#/A# | F#/A# | F# | F# | C#m | C#m |
| F#/A# | F#/A# | F# | F# | C#m | C#m | B | B |

I hear you talking when I`m on the street
Your mouth don`t move but I can hear you speak
What`s the matter with the boy
He don`t come around no more
Is he checking out for sure
Is he gonna close the door on me

I`m always hearing voices on the street
I want to shout but I can hardly speak
I was making love last night
To a dancer friend of mine
I can`t seem to stay in step
`Cause she come every time she pirouettes over me

But I only get my rocks off when I`m sleeping
I only get my rocks off when I`m dreaming

I`m zipping through the days at lightning speed
Plug in flush out and fire that fucking feed
Heading for the overload
Splattered on a dusty road
Kick me like you kicked before
I can`t even feel the pain no more

But I only get my rocks off when I`m sleeping
I only get my rocks off when I`m dreaming

Feel so mesmerized can`t describe that scene
Feel so hypnotized all that inside me

The sunshine bores the daylights out of me
Chasing shadows moonlight mystery
Heading for the overload
Splattered on a dusty road
Kick me like you kicked before
I can`t even feel the pain no more

But I only get my rocks off when I`m sleeping
I only get my rocks off when I`m dreaming

Тональность:

Это должно быть в ТОП-листе! - Топ-лист композиций



Назад
Рекомендуем посмотреть другие песни исполнителя «Rolling Stones»:

  • Комменты Fb ()
  • Комменты ВК



Добавить в Избранное Браузера
Сохранить здесь Очистить


x

0


+
-

+
-

-

Авторизация





Зарегистрироваться

M

Дата и время

  • 11:41:04
     

Социальные ссылки


Наши приложения

  • Muzbank App Play Market
  • Muzbank Amazon App