MUZBANK


МУЗЫКАЛЬНО-ИНФОРМАЦИОННЫЙ БАНК





ССАДко • Я встретил розу (аккорды и текст - chords & lyrics)


12411

Print

Видео «Я встретил розу (САДко)»

Видео клипы к песне подбираются автоматически сайтом youtube. Возможны некоторые несоответствия клипов песне.

↑ Спрятать рекламу ↑





/Вступление:/ Gm

           D     Gm
Я встретил розу, роза цвела
D             Gm
Шипов колючих роза полна
             Cm          Gm
Я встретил розу, роза цвела
D                  Gm
Шипов колючих роза полна.

Сказал я розе: "Я в сад вернусь"
На этой розе я и женюсь
Сказал я розе: "Я в сад вернусь"
На этой розе я и женюсь.

Я в сад вернулся, хожу-брожу
Шипов колючих не нахожу.
Я в сад вернулся, хожу-брожу
Шипов колючих не нахожу.

Ой, парни-парни, вам мой совет
Не рвите розы в семнадцать лет.
Ой, парни-парни, вам мой совет
Не рвите розы в семнадцать лет.

Розы прекрасны, розы нежны
Их ароматы всем нам нужны
Розы прекрасны, розы нежны
Их ароматы всем нам нужны.

*Играть можно щипками: бас / три струны.


/Соло-мотив:/

e----------------|------------------- (первая тонкая струна)
B----------------|--1---------1------
G-------2-3--5~--|------3-2-----3----
D----5-----------|-------------------
A----------------|-------------------
E----------------|------------------- (шестая толстая струна)



e----------------|------------------|
B----------------|------------------|
G--3-2--0--------|------------------|
D-----------4~---|--0--2--4--5~~----|
A----------------|------------------|
E----------------|------------------|


Тональность:

Это должно быть в ТОП-листе! - Топ-лист композиций



Назад

  • Комменты Fb ()
  • Комменты ВК



Добавить в Избранное Браузера
Сохранить здесь Очистить


x

0


+
-

+
-

-

Авторизация





Зарегистрироваться

M

Дата и время

  • 02:12:35
     

Социальные ссылки


Наши приложения

  • Muzbank App Play Market
  • Muzbank Amazon App