MUZBANK


МУЗЫКАЛЬНО-ИНФОРМАЦИОННЫЙ БАНК





ССамойлов Вадим • Слова закончились (аккорды и текст - chords & lyrics)


397

Print

Видео «Слова закончились (Самойлов Вадим)»

Видео клипы к песне подбираются автоматически сайтом youtube. Возможны некоторые несоответствия клипов песне.

↑ Спрятать рекламу ↑





/Проигрыш:/
C  Am  Em

          C             Am       Em
Вот чистый лист в нём проступают города
      C         Am       Em
И очертания наших будущих имён
       C      Am        Em
Они видны издалека едва-едва
         C            Am      Em
Не разглядеть их торжествующих знамён
       C        Am     Em
Таращу лист уже усталые глаза
         C       Am        Em
Хлещу кнутами воспаленные мозги
        C       Am        Em
Пришёл увидел победил и опоздал
        C         Am             Em
Исписан лист изорван лист и стол в крови


/ПРИПЕВ:/
     Em                 F#7           Bm         Em         
Я тороплюсь, я торможу, я нужных слов не нахожу
Em                     F#7           Bm         Em   
Слов больше нет, и знаю я: им тоже плохо без меня
          C             B7          Em
Мы не найдём друг друга больше никогда
          C            B7        Em
Слова закончились, закончились слова


/Проигрыш/

Гоняю в комнате унылый порожняк
Как мухобойкой по стене гоняют мух
А в голове такой торжественный сквозняк
Что у меня уже захватывает дух


    
/Проигрыш:/

1|--------------------------------
2|--------------------------------
3|-------2----4-----0-------------
4|---2------------------4---------
5|--------------------------2-----
6|--------------------------------

1|--------------------------------
2|--------------------------------
3|-------2----4-----0-------------
4|---2------------------4---------
5|--------------------------------
6|--------------------------------



 /Во время куплетов на второй гитаре:/

 1|--0--0----0------0--0----0------
 2|-------3-----3---------3----3---
 3|--------------------------------

Тональность:

Это должно быть в ТОП-листе! - Топ-лист композиций



Назад
Рекомендуем посмотреть другие песни исполнителя «Самойлов Вадим»:

  • Комменты Fb ()
  • Комменты ВК



Добавить в Избранное Браузера
Сохранить здесь Очистить


x

0


+
-

+
-

-

Авторизация





Зарегистрироваться

M

Дата и время

  • 21:04:07
     

Социальные ссылки


Наши приложения

  • Muzbank App Play Market
  • Muzbank Amazon App