MUZBANK


МУЗЫКАЛЬНО-ИНФОРМАЦИОННЫЙ БАНК





SSatriani Joe • Always With Me, Always With You (аккорды и текст - chords & lyrics)


1287

Print

Видео «Always With Me, Always With You (Satriani Joe)»

Видео клипы к песне подбираются автоматически сайтом youtube. Возможны некоторые несоответствия клипов песне.

↑ Спрятать рекламу ↑





Intro


------------------------------------------------
-----------------------------4-----------2------ Repeat 3 times
----8-9-8------8-9-8-------6---6-------4---4----
--9------9---9-------9---6-------6---4-------4--
------------------------------------------------
-7---------7-----------0-----------2------------

----------------------------------------------------------------------
-------2-----------4-----------2-----------2--------------------------
-----4---4-------6---6-------4---4-------3---3------------------------
---4-------4---6-------6---4-------4---4-------4----------------------
----------------------------------------------------------------------
-4-----------0-----------2-----------2--------------------------------


w/main rhythm {a.h}
----------------------------------------------------------------------
--4---5--5/7~~~~~-7/9---7---5--4-----5--------------------------------
----------------------------------------4/6~~~~~-----⁄4---6--/8--/9---
----------------------------------------------------------------------
----------------------------------------------------------------------
----------------------------------------------------------------------

{ p.m.} {s.h} { p.m.} {p.m}
----------------------------------------------------------------------
---------------------------------------------------------------4--5--7
-8---6------------------------4~~~----------/6~~---/8⁄6~~~---4--------
--------4~~~~~~----4--4--------------4--4-----------------------------
----------------------------------------------------------------------
----------------------------------------------------------------------

p p
------------------------------------------7--7--------9---9----9--11--
7/9--7⁄5⁄4~~~~2-------------4--5--5/7--/9------/11~~~---12--12--------
----------------/4~~~~~-----------------------------------------------
----------------------------------------------------------------------
----------------------------------------------------------------------
----------------------------------------------------------------------

full 1/2 p 1/2 1/2 1/4 full
-/14--11-------------------18^--16------18^-^------16^---19^----19----
----------14--14^--14~~~------------19----------19--------------------
----------------------------------------------------------------------
----------------------------------------------------------------------
----------------------------------------------------------------------
----------------------------------------------------------------------


full p p p p full
--------------------16----15-14-13⁄12⁄11---14--12-11-----------19-----
-17^---17~~~-----------------------------------------14~~~-/----------
------------------------------------------------------------------18^-
----------------------------------------------------------------------
----------------------------------------------------------------------
----------------------------------------------------------------------

s.h full 1/2 1/2 p p
-18----16------------------------21^~~~⁄--14^---12----12----------/17-
-------------19^----19~~~~~~-----------------------15----15-14-12-----
----16----16----------------------------------------------------------
----------------------------------------------------------------------
----------------------------------------------------------------------
----------------------------------------------------------------------

1/2 1/2 p p p p h h p p h p p p p h h
-14~~~~⁄--9^-^----7----7----------------------------------------------
--------------------10---10-8-7---------------------------------------
--------------------------------9-7⁄6-7-9-7-6⁄4-7-6-4---4-----------4-
------------------------------------------------------7---7-5-4-5-7---
----------------------------------------------------------------------
----------------------------------------------------------------------

p p p 1/2 h h h h h h h h
----------------------21^-~~~~----------------------------------------
------------------------------------------------------12-14-15-14-12--
----------------------------------------------11-12-14----------------
-7-5-4--------------------------------11-12-14------------------------
-------7-5--4~~~~~/--------------12-14--------------------------------
----------------------------------------------------------------------

p w/bar 1/2
---------------------------------------14^----------------------------
--------------------0--/12~~~~------12--------------------------------
-14-12-11-/-15~~~-----------------------------15⁄11-------------------
----------------------------------------------------------------------
----------------------------------------------------13⁄9~~~~⁄---------
----------------------------------------------------------------------

1/2 1/2
------------14^~~~----12--11⁄9~⁄7⁄6~~~~-----11-12-/14~~~--/16~~-14-12-
-14^--12~~~-----------------------------------------------------------
----------------------------------------------------------------------
----------------------------------------------------------------------
----------------------------------------------------------------------
----------------------------------------------------------------------

{p.m.} {p.m.}
-11--12⁄9~~~~---------------------------------------------------------
---------------14⁄12--14--16--17~~--16--14-----------12~~~------------
-------------------------------------------11-11-11---------11-11-----
----------------------------------------------------------------------
----------------------------------------------------------------------
----------------------------------------------------------------------

p
----------------------------11-12-12/14~~~~--16-14--------------------
-12/14~~~~--14/16⁄14~~~~-12------------------------17-----------------
----------------------------------------------------------------------
----------------------------------------------------------------------
----------------------------------------------------------------------
----------------------------------------------------------------------

p t p h t p h t p h t p h t p h t p h
----------------------------------------------------------------------
-16⁄14⁄12-----12-11--12-0-9--12-0-7--12-0-9--12-0-5--12-0-7--12-0-9---
----------------------------------------------------------------------
----------------------------------------------------------------------
----------------------------------------------------------------------
----------------------------------------------------------------------

t p h t p h t p h t p h t p h t p h t p h t p h
----------------------------------------------------------------------
-12-0-7--12-0-5--12-0-7--12-0-7--12-0-7--12-0-11--12-0-11--12-0-9------
----------------------------------------------------------------------
----------------------------------------------------------------------
----------------------------------------------------------------------
----------------------------------------------------------------------

t p h t p h t p h t p h t p h t p h t p h t p h
----------------------------------------------------------------------
-12-0-7--12-0-9--12-0-7--12-0-5--12-0-7--12-0-9--12-0-7--12-0-5-------
----------------------------------------------------------------------
----------------------------------------------------------------------
----------------------------------------------------------------------
----------------------------------------------------------------------

t p h t p h t p h t p h t p h t p h t p h t p h
----------------------------------------------------------------------
-12-0-4--12-0-2--12-0-2--12-0-2--12-0-2--12-0-11--12-0-11--12-0-9-----
----------------------------------------------------------------------
----------------------------------------------------------------------
----------------------------------------------------------------------
----------------------------------------------------------------------

t p h t p h t p h t p h t p h t p h t p h t p h
----------------------------------------------------------------------
-12-0-7--12-0-9--12-0-7--12-0-5--12-0-7--12-0-9--12-0-7--12-0-5-------
----------------------------------------------------------------------
----------------------------------------------------------------------
----------------------------------------------------------------------
----------------------------------------------------------------------

t p h t p h t p h t p h {-1 w/bar}
--------------------------------------------------------------/12-----
-12-0-4--12-0-5--12-0-5--12-0-5---9---7/9--/12--/14--12--/14--/9------
----------------------------------8---6/8--/11--/13--11--/13----------
----------------------------------------------------------------------
----------------------------------------------------------------------
----------------------------------------------------------------------

{-1/4 w/bar}{-1 -1 -1/4 -1 w/bar} p p full p
---12---------14--14---14---14-------/19--19~~~-16-------19^----16----
---9----------11--11---11---12---------------------19-16--------------
----------------------------------------------------------------------
----------------------------------------------------------------------
----------------------------------------------------------------------
----------------------------------------------------------------------

p full p full full p full p p full p
--------21^----19--21~~~⁄-------------4------------------------4------
-19-16----------------------------------7-4-----4----------------6-4--
---------------------------6^--6^-----------6^----7-6-4--6^^----------
----------------------------------------------------------------------
----------------------------------------------------------------------
----------------------------------------------------------------------

full p p p p 1/2 1/2 p p
-----4------------------------------------------7---11⁄10/11^---9-7-9-
-----4----------------------------------------7-----------------------
-6^-----7-6-4---------------------------8/9^--------------------------
--------------6-4-----------------------------------------------------
------------------6-4-⁄2---/4~~~~~/-----------------------------------
----------------------------------------------------------------------

p p h p h p full 1 1/2 bend
----------------------------------------------21^----19~~~---21^------
-12-11-9--11~~~--9-11-9⁄7--9-7⁄5~~------------------------------------
------------------------------------/11~~~/---------------------------
----------------------------------------------------------------4/6⁄4~~~
----------------------------------------------------------------------
----------------------------------------------------------------------

h p [p.m.] [p.m.]
----------------------------------------------------------------------
-4-5-/7~~--7/9--7~~⁄5⁄4/5⁄2~~~----------------------------------------
--------------------------------4-6/8~~~---9-8-⁄6-----------4~~-------
-------------------------------------------------⁄4---4--4-------4--4-
----------------------------------------------------------------------
----------------------------------------------------------------------

[s.h ]
----------------------------------------------------------------------
--------------------4-5-7-7/9⁄7⁄5⁄4⁄2~~-----------4-5-7---/9~~⁄7----5-
-/6~~/8~~~⁄6~~~---4----------------------3/4~~--4---------------------
----------------------------------------------------------------------
----------------------------------------------------------------------
----------------------------------------------------------------------

h h p p p h h p p p p h h
----------------------------------------------------------------------
-4--5-----------------------------------------------------------------
-------4/6~~~-----------8-9--8----------------------------------------
----------------8-9--11--------11-9-8⁄6-8-9--8-6------------6---------
-------------------------------------------------9--7-6-7-9-----------
----------------------------------------------------------------------

p p h h p p h h p h p
----------------------------------------------------------------------
----------------------------------------------------------------------
----------------------------------------------------------------------
----------------------------------------------------------------------
-9-7-6-7-9--7-6---6-7--6----------------------------------------------
----------------9---------9--7----------------------------------------

Тональность:

Это должно быть в ТОП-листе! - Топ-лист композиций



Назад
Рекомендуем посмотреть другие песни исполнителя «Satriani Joe»:

  • Комменты Fb ()
  • Комменты ВК



Добавить в Избранное Браузера
Сохранить здесь Очистить


x

0


+
-

+
-

-

Авторизация





Зарегистрироваться

M

Дата и время

  • 10:12:00
     

Социальные ссылки


Наши приложения

  • Muzbank App Play Market
  • Muzbank Amazon App