MUZBANK


МУЗЫКАЛЬНО-ИНФОРМАЦИОННЫЙ БАНК





SSatriani Joe • Big Bad Moon (аккорды и текст - chords & lyrics)


464

Print

Видео «Big Bad Moon (Satriani Joe)»

Видео клипы к песне подбираются автоматически сайтом youtube. Возможны некоторые несоответствия клипов песне.

↑ Спрятать рекламу ↑






Intro
Q=144
4/4
Gtr I Gtr II
E|-8---6-(6)-----|---------------|-----------------|-0-|
B|-5---7-(7)--8--|-(8)-7---------|-----------------|-0-|
G|------------5--|-(5)-6---8---5-|-(5)-------------|---|
D|---------------|---------6---7-|-(7)--8--(8)-5---|---|
A|---------------|---------------|------6--(6)-7---|---|
E|---------------|---------------|-----------------|-0-|

E|-------------------------|-------------------------|
B|-------------------------|-------------------------|
G|-------------------------|-------------------------|
D|-x-x-x-x-x-x-x-x-x-x-x-x-|-x-x-x-x-x-x-x-x-x-x-x-x-|
A|-x-x-x-x-x-x-x-x-x-x-x-x-|-x-x-x-x-x-x-x-x-x-x-x-x-|
E|-------------------------|-------------------------|

(8=s8)
Gtrs II, III
E|-------0-(0)-0---0-|-(0)-0-----------|-------0-(0)-0---0-|-(0)-0----------0-|
B|-------0-(0)-0---0-|-(0)-0---0-3-----|-------0-(0)-0---0-|-(0)-0---0-3----0-|
G|-------------------|---------0-4--6--|-------------------|---------0-4--6---|
D|-------2-(2)-2---2-|-(2)-2-----5--7--|---2---2-(2)-2---2-|-(2)-2-----5--7---|
A|-----2---------2---|-------2---5--7--|-2---2---------2---|-------2---5--7---|
E|-0-0-0---------0---|-------0---3--5--|-0---0---------0---|-------0---3--5---|

E|-------0-(0)-0---0-|-(0)-0----------x-|-------0-(0)-0---0-|-(0)-0----------x-|
B|-------0-(0)-0---0-|-(0)-0---0-3----x-|-------0-(0)-0---0-|-(0)-0---0-3----x-|
G|-------------------|---------0-4--6---|-------------------|---------0-4--6---|
D|---2---2-(2)-2---2-|-(2)-2-----5--7---|---2---2-(2)-2---2-|-(2)-2-----5--7---|
A|-2---2---------2---|-------2---5--7---|-2---2---------2---|-------2---5--7---|
E|-0---0---------0---|-------0---3--5---|-0---0---------0---|-------0---3--5---|

Verse 1
E|--------------------|------------------|
B|o-------------------|------------------|
G|--------------------|---------x-0--2p0-|
D|----2---2-(2)-2---2-|-(2)-2---x-0--2p0-|
A|o-2---2-2-(2)-2-2-2-|-(2)---2------0---|
E|--0---0-0-(0)---0---|-------0---3------|

4x
E|-------------------|---------------------|
B|-------------------|-------------------o-|
G|-------------------|---------x-0--2p0----|
D|---2---2-(2)-2---2-|-(2)-2---x-0--2p0----|
A|-2---2-2-(2)-2-2-2-|-(2)---2------0----o-|
E|-0---0-0-(0)---0---|-------0---3---------|

Chorus
Gtr II
E|-0-0---(0)----|------------|-------------------|----------------12-|
B|-0-0---(0)----|------------|-------------------|-------------------|
G|--------------|------------|-------------------|----x⁄-------------|
D|--------------|------------|-------------------|----x⁄-------14----|
A|--------------|------------|-------------------|--------x⁄---------|
E|--------------|------------|-------------------|--------x⁄-0-------|

 Gtr III
 ⁄0.5/
E|--------------|------------|-------------------|-------------------|
B|--------------|------------|-------------------|-------------------|
G|--------------|------------|-----------------x-|-xs=x⁄-------------|
D|-2------------|-(2)--------|-(2)------(2)----x-|-xs=x⁄--x⁄---------|
A|--------------|------------|-------------------|--------x⁄---------|
E|--------------|------------|-------------------|--------x⁄----0--0-|

Guitar Solo
Gtr IV
E|-------12---12-------12---12-------12---------12---------12-|
B|-15b17---------15b17---------15b17------15b17----15b17------|
G|------------------------------------------------------------|
D|------------------------------------------------------------|
A|------------------------------------------------------------|
E|------------------------------------------------------------|

 Gtrs II, III
E|------------------------0----(0)------0----------------0-|
B|------------------------0----(0)------0----------------0-|
G|---------------------------------------------------------|
D|----------2-------------2----(2)------2----------------2-|
A|--2-------------2------------------------------2---------|
E|--0-------------0------------------------------0---------|

E|-------12---------12---------12-------12-------12---------12-|
B|-15b17------15b17----15b17------15b17----15b17----15b17------|
G|-------------------------------------------------------------|
D|-------------------------------------------------------------|
A|-------------------------------------------------------------|
E|-------------------------------------------------------------|

E|-(0)------0---------------------------------------------x-|
B|-(0)------0----------------0-----3----------------------x-|
G|---------------------------0-----4--------------6---------|
D|-(2)------2----------------------5--------------7---------|
A|-------------------2-------------5--------------7---------|
E|-------------------0-------------3--------------5---------|

E|-------12---------12---------12-15b16-12---------12---------12-|
B|-15b17------15b17----15b17-----------------15b17----15b17------|
G|---------------------------------------------------------------|
D|---------------------------------------------------------------|
A|---------------------------------------------------------------|
E|---------------------------------------------------------------|

E|---------------------------0----(0)------0----------------0-|
B|---------------------------0----(0)------0----------------0-|
G|------------------------------------------------------------|
D|----------2----------------2----(2)------2----------------2-|
A|--2----------------2------------------------------2---------|
E|--0----------------0------------------------------0---------|

E|-15b16-12---------12------x-----------|
B|------------15b17---------------------|
G|---------------------15-----12--12----|
D|-----------------------------------14-|
A|--------------------------------------|
E|--------------------------------------|

E|-(0)------0-------------------------x-|
B|-(0)------0-------------0----3------x-|
G|------------------------0----4---6----|
D|-(2)------2------------------5---7----|
A|-------------------2---------5---7----|
E|-------------------0---------3---5----|

E|-12----------12----------12-----------12----------|
B|-12h14p12----12h14p12----12h=14p12----12h14p12----|
G|----------14----------14-----------14----------14-|
D|--------------------------------------------------|
A|--------------------------------------------------|
E|--------------------------------------------------|

E|--------------------0----(0)-----0-----------0-|
B|--------------------0----(0)-----0-----------0-|
G|-----------------------------------------------|
D|--------2-----------2----(2)-----2-----------2-|
A|--2-----------2------------------------2-------|
E|--0-----------0------------------------0-------|

E|-12-----------12----------12----------12-12-----|
B|-12h=14p12----12h14p12----12h14p12----12-12-----|
G|-----------14----------14----------14-------0---|
D|----------------------------------------------0-|
A|------------------------------------------------|
E|------------------------------------------------|

E|-(0)-----0--------------------------------x-|
B|-(0)-----0-----------0-----3--------------x-|
G|---------------------0-----4-----------6----|
D|-(2)-----2-----------------5-----------7----|
A|---------------2-----------5-----------7----|
E|---------------0-----------3-----------5----|

E|---12----------12h13p12s10-12-----12p------------------|
B|------15-15-15-----------------14p12-------------------|
G|-0-------15---------------------------12---------------|
D|-----------------------------------------14-12h14p==12-|
A|-------------------------------------------------------|
E|-------------------------------------------------------|

E|-------------------0-------(0)-----0--------------0-|
B|-------------------0-------(0)-----0--------------0-|
G|----------------------------------------------------|
D|-------2-----------2-------(2)-----2--------------2-|
A|-2-----------2-------------------------------2------|
E|-0-----------0-------------------------------0------|

E|--------------------------------------------|-9---7-7---------------|
B|--------------------------------------------|-8b9---8b9-------------|
G|--------------------------------------------|-----------9-(9)---7---|
D|------------------------------------------0-|---------------------9-|
A|-14b17==(14)r---9s11------------------------|-----------------------|
E|-----------------------[12]-([12])--7s9-----|-----------------------|

E|-(0)----------0-------------------------x---|-----------0-(0)-0---0-|
B|-(0)----------0------0---------3--------x---|-----------0-(0)-0---0-|
G|---------------------0---------4----6-------|-----------------------|
D|-(2)----------2----------------5----7-------|-----2-----2-(2)-2---2-|
A|----------------2--------------5----7-------|-2-----2-----------2---|
E|----------------0--------------3----5-------|-0-----0-----------0---|

E|--------------------------------|
B|-7------------------------12-11-|
G|---[7]b9-7b9-[7]b9===(7)r-------|
D|--------------------------------|
A|--------------------------------|
E|--------------------------------|

E|-------------------------------------------------|
B|-12-11s10s11-12-11s10s11-12-11s10s11-12-11s10s11-|
G|-------------------------------------------------|
D|-------------------------------------------------|
A|-------------------------------------------------|
E|-------------------------------------------------|

E|-(0)-0-----------------------x-|------------------0----(0)-----0-----------0-|
B|-(0)-0--------0--3-----------x-|------------------0----(0)-----0-----------0-|
G|--------------0--4-----6-------|---------------------------------------------|
D|-(2)-2-----------5-----7-------|-------2----------2----(2)-----2-----------2-|
A|----------2------5-----7-------|-2----------2------------------------2-------|
E|----------0------3-----5-------|-0----------0------------------------0-------|

E|--------------------------------------------------|
B|-12--11s10s11-12-11s10s11-12-11s10s11-12-11s10s11-|
G|--------------------------------------------------|
D|--------------------------------------------------|
A|--------------------------------------------------|
E|--------------------------------------------------|

E|-(0)-----0-----------------------------------x-|
B|-(0)-----0-----------0-----3-----------------x-|
G|---------------------0-----4-----------6-------|
D|-(2)-----2-----------------5-----------7-------|
A|---------------2-----------5-----------7-------|
E|---------------0-----------3-----------5-------|

E|-12----------12----------12-----------12---------------------------12-|
B|----12----12----------------15p12--------15p12----12h14p12-(12)-12----|
G|-------14-------15p12h14----------14-----------14---------------------|
D|----------------------------------------------------------------------|
A|----------------------------------------------------------------------|
E|----------------------------------------------------------------------|

E|--------------------------0-------(0)-----0------------------0-|
B|--------------------------0-------(0)-----0------------------0-|
G|---------------------------------------------------------------|
D|--------2-----------------2-------(2)-----2------------------2-|
A|--2--------------2---------------------------------2-----------|
E|--0--------------0---------------------------------0-----------|

E|------------12----------12-----------------17tr20b19===-|
B|--15p=12-------15p12-------15p12h14----x----------------|
G|-(15)----14----------14----------------x----------------|
D|------------------------------------x⁄---0--------------|
A|------------------------------------x⁄------------------|
E|------------------------------------x⁄------------------|

E|--(0)--------0------------------------------x-|
B|--(0)--------0--------------0-------3-------x-|
G|----------------------------0-------4----6----|
D|--(2)--------2----------------------5----7----|
A|----------------------2-------------5----7----|
E|----------------------0-------------3----5----|

E|-(17tr20)r======(17tr20)b19====(17tr20)r==|
B|------------------------------------------|
G|------------------------------------------|
D|------------------------------------------|
A|------------------------------------------|
E|------------------------------------------|

E|=(17tr20)b19====(17tr20)r-----------|
B|--------------------------0---------|
G|--------------------------0---------|
D|--------------------------0---------|
A|----------------------------5s16-x⁄-|
E|----------------------------5s16-x⁄-|

E|------------0--(0)---------0----------0-|-(0)--------0---------------------x-|
B|------------0--(0)---------0----------0-|-(0)--------0-----------0-3-------x-|
G|----------------------------------------|------------------------0-4----6----|
D|--------2---2--(2)---------2----------2-|-(2)--------2-------------5----7----|
A|-2--------2--------------------2--------|----------------2---------5----7----|
E|-0--------0--------------------0--------|----------------0---------3----5----|

E|----------------------|-------------h7-|
B|--------x-------0-----|----------------|
G|--------x-------------|-------------h7-|
D|-x⁄---x----x----------|----------------|
A|-x⁄---x----x-------|-()----------------|
E|-x⁄---x----x----------|----------------|

E|----------------------|---------------------|
B|----------------------|---------------------|
G|----------------------|-----------x--0--2p0-|
D|----2---2-(2)-2----2--|--(2)--2---x--0--2p0-|
A|-2----2-2-(2)-2-2--2--|--(2)----2-------0---|
E|-0----0-0-(0)---0-----|---------0----3------|

E|--(7)------------------|-(7)----------|
B|-----------------------|-----------h8-|
G|--(7)------------------|-(7)----------|
D|-----------------------|--------------|
A|-()--------------------|--------------|
E|-----------------------|--------------|

E|-----------------------|-------------------|
B|-----------------------|-------------------|
G|-----------------------|---------x--0--2p0-|
D|-------2---2-(2)-2---2-|-(2)-2---x--0--2p0-|
A|---2-----2-2-(2)-2-2-2-|-(2)---2-------0---|
E|---0-----0-0-(0)---0---|-------0----3------|

Verse 2
E|---------------------|-----|
B|-(8)-----------------|-(8)-|
G|---------------------|-----|
D|---------------------|-----|
A|---------------------|-----|
E|---------------------|-----|

E|---------------------|------------------|
B|---------------------|------------------|
G|---------------------|-----------0--2px-|
D|-----2---2-(2)-2---2-|-----2---2-0--2px-|
A|--2------2-(2)-----2-|--------------0---|
E|--0----0-0-(0)---0---|--0----0---3------|

E|---------------------|------|
B|-(8)-----------------|-(8)⁄-|
G|---------------------|------|
D|---------------------|------|
A|---------------------|------|
E|---------------------|------|

E|---------------------|-------------------|
B|---------------------|-------------------|
G|---------------------|------------0--2px-|
D|-----2---2-(2)-2---2-|------2---2-0--2px-|
A|--2------2-(2)-----2-|---------------0---|
E|--0----0-0-(0)---0---|--0-----0---3------|

Gtrs I, II
3x
E|--------------------|----------------|-------------------|-------------------|
B|o-------------------|----------------|-------------------|-----------------o-|
G|--------------------|---------0--2px-|-------------------|---------0--2px----|
D|----2---2-(2)-2---2-|---2---2-0--2px-|---2---2-(2)-2---2-|---2---2-0--2px----|
A|o-2-----2-(2)-----2-|------------0---|-2-----2-(2)-----2-|------------0----o-|
E|--0---0-0-(0)---0---|-0---0---3------|-0---0-0-(0)---0---|-0---0---3---------|

Chorus
Gtr IV
E|----------------|------------|------------|
B|-29s============|=19s========|=10s========|
G|-29s============|=19s========|=10s========|
D|-29s============|=19s========|=10s========|
A|----------------|------------|------------|
E|----------------|------------|------------|

 Gtr III
E|--0-0---(0)-----|-(0)--------|-(0)-|
B|--0-0---(0)-----|-(0)--------|-(0)-|
G|---------3------|-(3)--------|-(3)-|
D|----------------|------------|-----|
A|----------------|------------|-----|
E|----------------|------------|-----|

 Gtr II
E|----------------|------------|-----|
B|----------------|------------|-----|
G|----------------|------------|-----|
D|--2-2---(2)--2--|-(2)--------|-(2)-|
A|--2-2---(2)-----|------------|-----|
E|--0-0---(0)-----|------------|-----|

E|------------------------------------------------0-|
B|--3s========================1---------0---------0-|
G|--3s========================1---------0-----------|
D|--3s========================1---------0-----------|
A|--------------------------------------------------|
E|--------------------------------------------------|

 ⁄1____/2____⁄2
E|---------------------------------------------|
B|---------------------------------------------|
G|--------------------------------------x------|
D|-----()-()-()-()-------x-------------||------|
A|--------------------------------------x---x⁄-|
E|------------------------------------------x⁄-|

 ⁄3.5______________________/1____⁄1
E|-------------------------------------|
B|-----------------------()-()---()-()-|
G|-------------------------------------|
D|-------------------------------------|
A|-------------------------------------|
E|-------------------------------------|

Harmonica Solo
Gtr II
E|-----------------|---------------|-----------------|------------------|
B|-----------------|---------------|-----------------|------------------|
G|-4-4-4-4-4-4-4-4-|-4-4-4-4-7-----|-4-4-4-4-4-4-4-4-|---------2-2-2-2--|
D|-4-4-4-4-4-4-4-4-|-4-4-4-4-7--7--|-4-4-4-4-4-4-4-4-|-2-2-4-2-2-2-2-2--|
A|-2-2-2-2-2-2-2-2-|-2-2-2-2-5--7--|-2-2-2-2-2-2-2-2-|-2-2-2-2-0-0-0-0--|
E|-----------------|------------5--|-----------------|------------------|

1.,2.
E|------------------|---------------|-----------------|-----------------|
B|o-----------------|---------------|-----------------|----------------o|
G|--4-4-4-4-4-4-2-2-|-2-4-4---7-----|-4-4-4-4-4-4-2-2-|-2-4-4---2-2-2---|
D|--4-4-4-4-4-4-2-2-|-2-4-4-0-7--7--|-4-4-4-4-4-4-2-2-|-2-4-4-2-2-2-2---|
A|o-2-2-2-2-2-2-2-2-|-2-2-2---5--7--|-2-2-2-2-2-2-2-2-|-2-2-2-2-0-0-0--o|
E|------------------|------------5--|-----------------|-----------------|

Guitar Solo
3.
Gtr IV
E|------------------||----------------------|---------------------------|
B|--------------/17s||=16s============17-17-|-(17)-------17s16-/17-(17)-|
G|--------------/17s||=16s============17----|------------17s16----------|
D|------------------||----------------------|---------------------------|
A|------------------||----------------------|---------------------------|
E|------------------||----------------------|---------------------------|

 Gtr II
E|------------------||----------------------|---------------------------|
B|------------------||----------------------|---------------------------|
G|-2-4-4---2--------||--2-2---2-(2)-2-----2-|--(2)-2------5----------7⁄-|
D|-2-4-4-2-2--------||--2-2---2-(2)-2-----2-|--(2)-2------5----------7⁄-|
A|-2-2-2-0-0--------||--0-0-0-0-(0)-0--0--0-|--(0)-0-0-0--3----------5⁄-|
E|------------3-----||----------------------|---------------------------|

E|-------------------------------|---------------------0-x⁄--------|
B|-15s17s15s17s15------17--------|-----------------------x⁄-16-17s-|
G|----------------/17-----/17-14-|-(14)-------(14)s17⁄------16-17s-|
D|-------------------------------|---------------------------------|
A|-------------------------------|---------------------------------|
E|-------------------------------|---------------------------------|

E|-------------------------------|--------------------------|
B|-------------------------------|--------------------------|
G|--2--2-----2-----(2)--2------2-|--(2)-2-----------5----7⁄-|
D|--2--2-----2-----(2)--2------2-|--(2)-2-----------5----7⁄-|
A|--0--0--0--0-----(0)--0---0--0-|--(0)-0-0-0-------3----5⁄-|
E|-------------------------------|--------------------------|

E|----------------------|----------------------|
B|-16s============17-17-|-(17)--------/19--/19-|
G|-16s============17----|--------17---/19--/19-|
D|----------------------|----------------------|
A|----------------------|----------------------|
E|----------------------|----------------------|

E|----------------------|-----------------------|
B|----------------------|-----------------------|
G|--2-2---2-(2)-2-----2-|--(2)-2--------5----7⁄-|
D|--2-2---2-(2)-2-----2-|--(2)-2--------5----7⁄-|
A|--0-0-0-0-(0)-0--0--0-|--(0)-0--0-0---3----5⁄-|
E|----------------------|-----------------------|

E|----------------------------|------------------------------------------|
B|-/19---17s13------14-/14----|------------------------------------------|
G|-/19---------/14---------14-|-(14)---(14)-x---12-(12)-(12)s14-14s12s14-|
D|----------------------------|------------------------------------------|
A|----------------------------|------------------------------------------|
E|----------------------------|------------------------------------------|

E|----------------------------|------------------------------------------|
B|----------------------------|-------------------------------------3----|
G|---2-2-----2--(2)--2------2-|--(2)-2--------------------5---------2--0-|
D|---2-2-----2--(2)--2------2-|--(2)-2--------------------5---------0----|
A|---0-0--0--0--(0)--0---0--0-|--(0)-0---0----0-----------3--------------|
E|----------------------------|-------------------------------------3----|

E|--------------------------------|--------------------------------|
B|-------------12s13-(13)---------|--------------------------------|
G|-14s12s14-14--------------14s12-|-14s12S===14----------14--14s12-|
D|--------------------------------|--------------------------------|
A|--------------------------------|-------------12-(12)------------|
E|--------------------------------|--------------------------------|

E|--------------------------------|--------------------------|
B|--------------------------------|--------------------------|
G|-----2--2--------2--(2)-2-----2-|----(2)-2---------5----7⁄-|
D|-----2--2--------2--(2)-2-----2-|----(2)-2---------5----7⁄-|
A|-----0--0--0-----0--(0)-0--0--0-|----(0)-0--0--0---3----5⁄-|
E|--------------------------------|--------------------------|

E|-------------------------------|-----------------------------------------|
B|-------------12s13----12s13----|---------------------------17s=15----17s-|
G|-(12)---14------------------14-|-(14)-----(14(21))-(14)s19--------17-----|
D|-------------------------------|-----------------------------------------|
A|-------------------------------|-----------------------------------------|
E|-------------------------------|-----------------------------------------|

E|-------------------------------|-------------------------------|
B|-------------------------------|-------------------------------|
G|---2--2----2----(2)-2--------2-|--(2)-2--------------5------7⁄-|
D|---2--2----2----(2)-2--------2-|--(2)-2--------------5------7⁄-|
A|---0--0--0-0----(0)-0-----0--0-|--(0)-0-0---0--------3------5⁄-|
E|-------------------------------|-------------------------------|

E|-------17-----------17-17s|=16s=17-17-17s16-17-20s=17-22-|
B|-16s17----17s16s=17----17s|=16s=17----17s16--------------|
G|--------------------------|------------------------------|
D|--------------------------|------------------------------|
A|--------------------------|------------------------------|
E|--------------------------|------------------------------|

E|--------------------------|------------------------|
B|--------------------------|------------------------|
G|--2--2-----2-(2)--2-----2-|-(2)--2--------5-----7⁄-|
D|--2--2-----2-(2)--2-----2-|-(2)--2--------5-----7⁄-|
A|--0--0--0--0-(0)--0--0--0-|-(0)--0--0--0--3-----5⁄-|
E|--------------------------|------------------------|

E|-(22)-------(22)s====23-|-22s24----22s24---22s24-------22s24-|
B|------------------------|------------------------------------|
G|------------------------|------------------------------------|
D|------------------------|------------------------------------|
A|------------------------|------------------------------------|
E|------------------------|------------------------------------|

 Gtr III
E|------------------------|-------------------------------------|
B|------------------------|-------------------------------------|
G|------------------------|--------------------------xsx--------|
D|------------------------|--------------------------xsx-----x⁄-|
A|------------------------|----------------------------------x⁄-|
E|------------------------|-------------------------------------|

 Gtr II
E|------------------------|--------------------------------------|
B|------------------------|--------------------------------------|
G|---2--2---2--(2)-2----2-|----(2)-2-----2-2---------------------|
D|---2--2---2--(2)-2----2-|----(2)-2-----2-2---------------------|
A|---0--0-0-0--(0)-0-0--0-|----(0)-0-----0-0---------------------|
E|------------------------|----------------------3b4---------3b4-|

Guitar Solo
E|-22s24----------------24-|-(24)-------(24)⁄-|
B|-------------------------|------------------|
G|-------------------------|------------------|
D|-------------------------|------------------|
A|-------------------------|------------------|
E|-------------------------|------------------|

E|------------0-(0)--------|--------0-----0----0-|
B|------------0-(0)---0--3-|--(3)---------2----2-|
G|-------------------------|-------------------2-|
D|-------------------------|---------------------|
A|-----x⁄------------------|---------------------|
E|-----x⁄---0--------------|---------------------|

E|------------0-(0)-0----0-|--(0)-0--------------x-|
B|------------0-(0)-0----0-|--(0)-0---0---3------x-|
G|-------------------------|----------0---4----6---|
D|--------2---2-(2)-2----2-|--(2)-2-------5----7---|
A|-----2----2---------2----|--------2-----5----7---|
E|-----0----0---------0----|--------0-----3----5---|

E|-----0----0--0---------|-----0-0-------------|
B|-3---2----0--0---------|-----0-0-x-----0-2-0-|
G|---------------2p0-----|---------x-----0-2-0-|
D|---------------------2-|-(2)-----x-----------|
A|-----------------------|---------------------|
E|-----------------------|-----------3b4-------|

 Gtr II
E|-------0-(0)-0-----0---|-(0)-0-------------x-|
B|-------0-(0)-0-----0---|-(0)-0---0-3-------x-|
G|-----------------------|---------0-4-----6---|
D|---2---2-(2)-2-----2---|-(2)-2-----5-----7---|
A|-2---2---------2-------|-------2---5-----7---|
E|-0---0---------0-------|-------0---3-----5---|

E|------------------------------------|-----------------------------------|
B|-2-2p==0-2-2p==0---------0p---------|-----------------------------------|
G|-2-2p==0-2-2p==0--2--2p==0--2-2p==0-|--2--2p==0-2-2p==0-2-3p2p0-2-3p2p0-|
D|------------------------------------|-----------------------------------|
A|------------------------------------|-----------------------------------|
E|------------------------------------|-----------------------------------|

E|-------------0---(0)---0--------0---|-(0)---0-----------------------x-|
B|-------------0---(0)---0--------0---|-(0)---0-------0---3-----------x-|
G|------------------------------------|---------------0---4-------6-----|
D|-----2-------2---(2)---2--------2---|-(2)---2-----------5-------7-----|
A|-2-------2------------------2-------|-----------2-------5-------7-----|
E|-0-------0------------------0-------|-----------0-------3-------5-----|

E|------------------------------0--|-(0)-0------0--(0)-0---0-------|
B|------------------------------0--|-(0)-0------0--(0)-0-0-0-15b17-|
G|-2-3p2p0-2-3p2p0--2--3p2p0-------|-------------------------------|
D|---------------------------2-(2)-|-(2)-2---2-(2)-----------------|
A|---------------------------------|-------------------------------|
E|---------------------------------|-------------------------------|

E|-------------0---(0)---0------0--|-(0)---0------------------x-|
B|-------------0---(0)---0------0--|-(0)---0--------0--3------x-|
G|---------------------------------|----------------0--4---6----|
D|-----2-------2---(2)---2------2--|-(2)---2-----------5---7----|
A|-2-------2-----------------2-----|------------2------5---7----|
E|-0-------0-----------------0-----|------------0------3---5----|

E|-12---------12-------12---------12----------12-------12---------|
B|----15b17------15b17------15b17-----15b17------15b17------15b17-|
G|----------------------------------------------------------------|
D|----------------------------------------------------------------|
A|----------------------------------------------------------------|
E|----------------------------------------------------------------|

E|------------------------0-------(0)-------0-------------0-|
B|------------------------0-------(0)-------0-------------0-|
G|----------------------------------------------------------|
D|----------2-------------2-------(2)-------2-------------2-|
A|--2-------------2-------------------------------2---------|
E|--0-------------0-------------------------------0---------|

E|-12h=15p12----12h15p12----12h==15p12----12----12----17p15p12----17p=-|
B|-----------14----------15------------15----15----15----------15------|
G|---------------------------------------------------------------------|
D|---------------------------------------------------------------------|
A|---------------------------------------------------------------------|
E|---------------------------------------------------------------------|

E|-(0)--------0----------------------------------------------x-|
B|-(0)--------0----------------0--------3--------------------x-|
G|-----------------------------0--------4-----------6----------|
D|-(2)--------2-------------------------5-----------7----------|
A|---------------------2----------------5-----------7----------|
E|---------------------0----------------3-----------5----------|

E|-15p12------17p15p12----17p15p12----17p=15p12----17p15p12----17p15p12----17-|
B|-------15------------15----------15-----------15----------15----------15----|
G|----------------------------------------------------------------------------|
D|----------------------------------------------------------------------------|
A|----------------------------------------------------------------------------|
E|----------------------------------------------------------------------------|

E|----------------------------0-------(0)--------0-----------------0-|
B|----------------------------0-------(0)--------0-----------------0-|
G|-------------------------------------------------------------------|
D|----------2-----------------2-------(2)--------2-----------------2-|
A|--2----------------2------------------------------------2----------|
E|--0----------------0------------------------------------0----------|

E|-(17)p15p12-15-17p15p12-15-17p15p12----17p15p12--|
B|------------------------------------15-----------|
G|-------------------------------------------------|
D|-------------------------------------------------|
A|-------------------------------------------------|
E|-------------------------------------------------|

E|---17p15p12---15-17-18p==17p15p12-|
B|15--------------------------------|
G|----------------------------------|
D|----------------------------------|
A|----------------------------------|
E|----------------------------------|

E|--(0)--------0---------------------------------------------------------x-|
B|--(0)--------0-----------------0--------3------------------------------x-|
G|-------------------------------0--------4-------------------6------------|
D|--(2)--------2--------------------------5-------------------7------------|
A|----------------------2-----------------5-------------------7------------|
E|----------------------0-----------------3-------------------5------------|

E|-19p17-19p15p==12-18p17-18p==17p15p12-|
B|--------------------------------------|
G|--------------------------------------|
D|--------------------------------------|
A|--------------------------------------|
E|--------------------------------------|

E|-19p==17p15p12-18p=17-18p17p15p12-19p17h19-17p15p12-21p17p15p12-|
B|----------------------------------------------------------------|
G|----------------------------------------------------------------|
D|----------------------------------------------------------------|
A|----------------------------------------------------------------|
E|----------------------------------------------------------------|

E|-----------------------------------------0----------(0)-----------0--------0-|
B|-----------------------------------------0----------(0)-----------0--------0-|
G|-----------------------------------------------------------------------------|
D|-------------2---------------------------2----------(2)-----------2--------2-|
A|--2------------------------2------------------------------------------2------|
E|--0------------------------0------------------------------------------0------|

E|-21--17-21-22-17-15-12---|
B|-------------------------|
G|-------------------------|
D|-------------------------|
A|-------------------------|
E|-------------------------|

E|-21-15-17-15-12-22-17-15-12-21-20-15-17-15-12-22-21-17-15-21-22-12-9-|
B|---------------------------------------------------------------------|
G|---------------------------------------------------------------------|
D|---------------------------------------------------------------------|
A|---------------------------------------------------------------------|
E|---------------------------------------------------------------------|

E|-(0)-------------------0---------------------------------------------------x-|
B|-(0)-------------------0--------------------------0--------3---------------x-|
G|--------------------------------------------------0--------4--------6--------|
D|-(2)-------------------2-----------------------------------5--------7--------|
A|-----------------------------------------2-----------------5--------7--------|
E|-----------------------------------------0-----------------3--------5--------|

E|------22b24======(22)r---22b24-22b24==|=(22)r---22pb24====(22)r-x⁄---------|
B|--------------------------------------|-------------------------x⁄---------|
G|--------------------------------------|-------------------------x⁄-x-x---x-|
D|--------------------------------------|----------------------------x-x---x-|
A|--------------------------------------|------------------------------------|
E|--------------------------------------|------------------------------------|

 PM PM
E|---------------0--(0)--0--------0-----|--(0)--0------------------------x-|
B|---------------0--(0)--0--------0-----|--(0)--0---------0---3----------x-|
G|--------------------------------------|-----------------0---4------6-----|
D|-------2-------2--(2)--2--------2-----|--(2)--2-------------5------7-----|
A|---2---------2------------2-----------|----------2----------5------7-----|
E|---0---------0------------0-----------|----------0----------3------5-----|

E|---------------------------|--------------------------------------|
B|---------------------------|--------------------------------------|
G|---------------------------|--------------------------------------|
D|---------5-8----------8-11-|------------11-14-------------14-17---|
A|-----4-7---------7-10------|------10-13-------------13-16---------|
E|-3-6---------6-9-----------|-9-12-------------12-15---------------|

E|---|
B|---|
G|---|
D|---|
A|---|
E|---|

E|----------------------|--------------------------|
B|----------------------|--------------------------|
G|----------------------|----------------12p0------|
D|-[14]-----------------|-([14])-12-12p0------11p0-|
A|----------------------|--------------------------|
E|----------------------|--------------------------|

E|----------0-(0)-0---0-|---(0)---0--------------x-|
B|----------0-(0)-0---0-|---(0)---0----0--3------x-|
G|----------------------|--------------0--4----6---|
D|------2---2-(2)-2---2-|---(2)---2-------5----7---|
A|---2----2---------2---|------------2----5----7---|
E|---0----0---------0---|------------0----3----5---|

E|----------------------------|--------------------|
B|----------------------------|--------------------|
G|----------------------------|--------------------|
D|----------------------------|-----------------x⁄-|
A|-10-------------------------|-----------------x⁄-|
E|----[12]-([12])-------------|-([12])----------x⁄-|

 PM PM
E|----------------0-(0)-0---0-|---(0)--0-----------x-|
B|----------------0-(0)-0---0-|---(0)--0---0-3-----x-|
G|----------------------------|------------0-4--6----|
D|------2---------2-(2)-2---2-|---(2)--2-----5--7----|
A|--2---------2-----------2---|----------2---5--7----|
E|--0---------0-----------0---|----------0---3--5----|

Verse 3
4x
E|------------------|-----------------|-----------------|--------------------|
B|o-----------------|-----------------|-----------------|------------------o-|
G|------------------|-----------0-2p0-|-----------------|-----------0-2p0----|
D|----2---2---2---2-|---2---2-0---2p0-|---2---2---2---2-|---2---2-0---2p0----|
A|o-2---2---2---2---|-2---2-------0---|-2---2---2---2---|-2---2-------0----o-|
E|--0---0---0---0---|-0---0---3-------|-0---0---0---0---|-0---0---3----------|

Chorus
Gtr IV
E|---------------|------------------------|
B|-24s===========|==15s===================|
G|-24s===========|==15s===================|
D|-24s===========|==15s===================|
A|---------------|------------------------|
E|---------------|------------------------|

 Gtr III
E|---------------|------------|
B|--0-0----------|------------|
G|---------------|-()---()-()-|
D|--2-2----------|------------|
A|--2-2----------|------------|
E|--0-0----------|------------|

E|--------------|-----|
B|---9s=========|==5⁄-|
G|---9s=========|==5⁄-|
D|---9s=========|==5⁄-|
A|--------------|-----|
E|--------------|-----|

E|--------------|----------------------|
B|--------------|----------------------|
G|-()-----------|----------------------|
D|--------------|-----[0]---[0]--------|
A|--h7----------|-(7)------------([7])-|
E|--------------|----------------------|

E|--------------|--------------|---------------|
B|--(0)---------|--(0)---------|-(0)------(0)--|
G|--------------|--------------|---------------|
D|--------------|--------------|---------------|
A|-([7])--------|-([7])--------|-(7)------(7)⁄-|
E|--------------|--------------|---------------|

 ⁄1.5___/
E|--------------|--------------|-------------------------|
B|--------------|--------------|-------------------------|
G|--------------|--------------|-------------------------|
D|--------------|--------------|-------------------------|
A|--(7)---------|--(7)---------|-(7)------(7)--0-----(0)-|
E|--------------|--------------|-------------------------|

 G
E|---|
B|---|
G|---|
D|---|
A|---|
E|---|

⁄1/ /2⁄ ⁄2/ /1⁄
E|--------------------------------|
B|--------------------------------|
G|--------------------------------|
D|-0---(0)----------------0---(0)-|
A|--------------------------------|
E|--------------------------------|

 ⁄2.5_____/1___⁄1
E|-------------------------------|
B|-------------------------------|
G|-------------------------------|
D|-------------------------------|
A|------9p=======0---(0)---------|
E|-----------------------------0-|

trs V, VI
E|---------------------------------14s=-|
B|---------------------------------15s=-|
G|--------------------------------------|
D|--------------------------------------|
A|--------------------------------------|
E|--------------------------------------|

Gtrs V, VI
E||--13s================|=14----12--------------|
B||o-14s================|=15----14---15--/14-12-|
G||---------------------|------------16--/14-12-|
D||---------------------|-----------------------|
A||o--------------------|-----------------------|
E||---------------------|-----------------------|

 Gtrs II, III
E|---------0-(0)-0---0-|-(0)-0---------------x-|
B|o--------0-(0)-0---0-|-(0)-0----0--3-------x-|
G|---------------------|----------0--4----6----|
D|-----2---2-(2)-2---2-|-(2)-2-------5----7----|
A|o--2---2---------2---|--------2----5----7----|
E|---0---0---------0---|--------0----3----5----|

3x
E|----------------------|---------------------14s===-|
B|-(12)-----------------|-(12)-------(12)⁄----15s==o-|
G|-(12)-----------------|-(12)-------(12)⁄-----------|
D|----------------------|----------------------------|
A|----------------------|--------------------------o-|
E|----------------------|----------------------------|

 3x
E|----------0-(0)-0---0-|--(0)-0---------------x-----|
B|----------0-(0)-0---0-|--(0)-0---0---3-------x---o-|
G|----------------------|----------0---4----6--------|
D|------2---2-(2)-2---2-|--(2)-2-------5----7--------|
A|---2----2---------2---|--------2-----5----7------o-|
E|---0----0---------0---|--------0-----3----5--------|

E|-13s================|=14----12--------------|
B|-14s================|=15----14---15--/14-12-|
G|--------------------|------------16--/14-12-|
D|--------------------|-----------------------|
A|--------------------|-----------------------|
E|--------------------|-----------------------|

E|--------0-(0)-0---0-|-(0)-0-----------------|
B|--------0-(0)-0---0-|-(0)-0-----------------|
G|--------------------|----------0--0----2--0-|
D|----2---2-(2)-2---2-|-(2)-2----0--0----2--0-|
A|--2---2---------2---|--------2---------0----|
E|--0---0---------0---|--------0----3---------|

E|----------------------|---------------------14s=-|
B|-(12)-----------------|-(12)-------(12)⁄----15s=-|
G|-(12)-----------------|-(12)-------(12)⁄---------|
D|----------------------|--------------------------|
A|----------------------|--------------------------|
E|----------------------|--------------------------|

E|----------0-(0)-0---0-|--(0)-0-----------------|
B|----------0-(0)-0---0-|--(0)-0-----------------|
G|----------------------|----------0---0----7--7-|
D|------2---2-(2)-2---2-|--(2)-2---0---0----7--7-|
A|---2----2---------2---|--------2----------5--5-|
E|---0----0---------0---|--------0-----3---------|

E|--13s================|=14----12--------------|
B|o-14s================|=15----14---15--/14-12-|
G|---------------------|------------16--/14-12-|
D|---------------------|-----------------------|
A|o--------------------|-----------------------|
E|---------------------|-----------------------|

E|---------0-(0)-0---0-|-(0)-0-----------------|
B|o--------0-(0)-0---0-|-(0)-0-----------------|
G|---------------------|----------0--0----2--0-|
D|-----2---2-(2)-2---2-|-(2)-2----0--0----2--0-|
A|o--2---2---------2---|--------2---------0----|
E|---0---0---------0---|--------0----3---------|

3x
E|----------------------|---------------------14s===-|
B|-(12)-----------------|-(12)-------(12)⁄----15s==o-|
G|-(12)-----------------|-(12)-------(12)⁄-----------|
D|----------------------|----------------------------|
A|----------------------|--------------------------o-|
E|----------------------|----------------------------|

 3x
E|----------0-(0)-0---0-|--(0)-0---------------------|
B|----------0-(0)-0---0-|--(0)-0-------------------o-|
G|----------------------|----------0---0----7--7-----|
D|------2---2-(2)-2---2-|--(2)-2---0---0----7--7-----|
A|---2----2---------2---|--------2----------5--5---o-|
E|---0----0---------0---|--------0-----3-------------|

E|-13s================|=14----12--------------|
B|-14s================|=15----14---15--/14-12-|
G|--------------------|------------16--/14s12-|
D|--------------------|-----------------------|
A|--------------------|-----------------------|
E|--------------------|-----------------------|

E|--------0-(0)-0---0-|-(0)-0-----------------|
B|--------0-(0)-0---0-|-(0)-0-----------------|
G|--------------------|----------0--0----2--0-|
D|----2---2-(2)-2---2-|-(2)-2----0--0----2--0-|
A|--2---2---------2---|--------2---------0----|
E|--0---0---------0---|--------0----3---------|

E|----------------------|---------------12s10-14-|
B|-(12)-----------------|-(12)----------15s12-15-|
G|-(12)-----------------|-(12)-------------------|
D|----------------------|------------------------|
A|----------------------|------------------------|
E|----------------------|------------------------|

E|----------0-(0)-0---0-|--(0)-0-----------------|
B|----------0-(0)-0---0-|--(0)-0-----------------|
G|----------------------|----------0-0------7--7-|
D|------2---2-(2)-2---2-|--(2)-2---0-0------7--7-|
A|---2----2---------2---|--------2----------5--5-|
E|---0----0---------0---|--------0---3-----------|

Gtrs II, III
E|-------------------------|-------------------------||-------------|--------*-|
B|-------------------------|-------------------------||-------------|--------*-|
G|-------------------------|-------------------------||-------------|--------*-|
D|-x-x-x-x-x-x-x-x-x-x-x-x-|-x-x-x-x-x-x-x-x-x-x-x-x-||-2-2-2-2-2-2-|-2------*-|
A|-x-x-x-x-x-x-x-x-x-x-x-x-|-x-x-x-x-x-x-x-x-x-x-x-x-||-2-2-2-2-2-2-|-2------*-|
E|-------------------------|-------------------------||-0-0-0-0-0-0-|-0------*-|

Тональность:

Это должно быть в ТОП-листе! - Топ-лист композиций



Назад
Рекомендуем посмотреть другие песни исполнителя «Satriani Joe»:

  • Комменты Fb ()
  • Комменты ВК



Добавить в Избранное Браузера
Сохранить здесь Очистить


x

0


+
-

+
-

-

Авторизация





Зарегистрироваться

M

Дата и время

  • 07:57:14
     

Социальные ссылки


Наши приложения

  • Muzbank App Play Market
  • Muzbank Amazon App