MUZBANK


МУЗЫКАЛЬНО-ИНФОРМАЦИОННЫЙ БАНК





SSatriani Joe • Day At The Beach (аккорды и текст - chords & lyrics)


408

Print

Видео «Day At The Beach (Satriani Joe)»

Видео клипы к песне подбираются автоматически сайтом youtube. Возможны некоторые несоответствия клипов песне.

↑ Спрятать рекламу ↑






4/4
Gtr I
T T T T T T T T T T T T T T T
E E E E E E E E E E E E E E E
||-----------------------------------------------|
||o-----(14)--------------------------------(14)-|
||----6-(14)---6-(16)---6-(14)---6-(16)---6-(14)-|
||----7--------7-(16)---7-(14)---7-(16)---7------|
||o----------------------------------------------|
||--5--------5--------5--------5--------5--------|


T T T T T T T T T T T T T T T
E E E E E E E E E E E E E E E
|-----------------------------------------------||
|-----(14)--------------------------------------||
|---6-(14)---6-(16)---6-(14)---6-(14)---6-(14)--||
|---7--------7-(16)---7-(14)---7-(14)---7-(14)--||
|-----------------------------------------------||
|-5--------5--------5--------5--------5---------||


T T T T T T T T T T T T T T T
E E E E E E E E E E E E E E E
|---------------------------------------------------|
|---10-(14)---10--------10--------10--------10-(14)-|
|---11-(14)---11-(16)---11-(14)---11-(16)---11-(14)-|
|----------------(16)------(14)------(16)-----------|
|-9---------9---------9---------9---------9---------|
|---------------------------------------------------|


T T T T T T T T T T T T T T T
E E E E E E E E E E E E E E E
|------------------------------------------------------||
|---10-(14)---10--------10--------10--------9---------o||
|---11-(14)---11-(16)---11-(14)---11-(14)---9-(14)-----||
|----------------(16)------(14)------(14)-----(14)-----||
|-9---------9---------9---------9---------7-----------o||
|------------------------------------------------------||


T T T T T T T T T T T T T T T
E E E E E E E E E E E E E E E
|--------------------------------(12)----------|
|---7-(14)---7--------7-(14)---7-(12)---7-(14)-|
|---7-(14)---7-(16)---7-(14)---7--------7-(14)-|
|--------------(16)----------------------------|
|-5--------5--------5--------5--------5--------|
|----------------------------------------------|


T T T T T T T T T T T T T T T
E E E E E E E E E E E E E E E
|-----(14)-----(14)-----(12)-----(12)-----(12)----||
|---9-(14)---9-(14)---9-(12)---9-(12)---9-(12)----||
|---9--------9--------9--------9--------9---------||
|-------------------------------------------------||
|-7--------7--------7--------7--------7-----------||
|-------------------------------------------------||


T T T T T T T T T T T T T T T
E E E E E E E E E E E E E E E
|-----(12)--------------------------------(12)-|
|---7-(12)---7-(14)---7--------7-(14)---7-(12)-|
|---7--------7-(14)---7-(16)---7-(14)---7------|
|-----------------------(16)-------------------|
|-5--------5--------5--------5--------5--------|
|----------------------------------------------|


H.=H
T T T T T T T T T T T T T T T
E E E E E E E E E E E E E E E
|-----(14)-----(14)-----(16)-----(16)-----(16)----||
|---9-(14)---9-(14)---9--------9--------9---------||
|---9--------9--------9-(16)---9-(16)---9-(16)----||
|-------------------------------------------------||
|-7--------7--------7--------7--------7-----------||
|-------------------------------------------------||


T T T T T T T T T T T T T T T
E E E E E E E E E E E E E E E
|-------(17)-------(17)-------(19)-------(19)-------(21)-|
|----14-(17)----14-(17)----14---------14---------14------|
|----14---------14---------14-(19)----14-(19)----14-(21)-|
|--------------------------------------------------------|
|-12---------12---------12---------12---------12---------|
|--------------------------------------------------------|


T T T T T T T T T T T T T T T
E E E E E E E E E E E E E E E
|-------(14)-------(14)-----(15)-----(15)-----(15)----||
|----12-(14)----12-(14)---8-(15)---8-(15)---8-(15)----||
|----12---------12--------9--------9--------9---------||
|-----------------------------------------------------||
|-10---------10---------7--------7--------7-----------||
|-----------------------------------------------------||


T T T T T T T T T T T T T T T
E E E E E E E E E E E E E E E
|-------(17)-------(17)-------(19)-------(19)-------(17)-|
|----14-(17)----14-(17)----14---------14---------14-(17)-|
|----14---------14---------14-(19)----14-(19)----14------|
|--------------------------------------------------------|
|-12---------12---------12---------12---------12---------|
|--------------------------------------------------------|


T T T T T T T T T T T T T T T
E E E E E E E E E E E E E E E
|-------(14)-------(14)-----(15)-----(15)-----(15)----||
|----12-(14)----12-(14)---8-(15)---8-(15)---8-(15)----||
|----12---------12--------9--------9--------9---------||
|-----------------------------------------------------||
|-10---------10---------7--------7--------7-----------||
|-----------------------------------------------------||


T T T T T T T T T T T T T T T
E E E E E E E E E E E E E E E
|-------(17)-------(17)-------(19)-------(19)-------(21)-|
|----14-(17)----14-(17)----14---------14---------14------|
|----14---------14---------14-(19)----14-(19)----14-(21)-|
|--------------------------------------------------------|
|-12---------12---------12---------12---------12---------|
|--------------------------------------------------------|


T T T T T T T T T T T T T T T
E E E E E E E E E E E E E E E
|-------(14)-------(14)-----(15)-----(15)-----(15)----||
|----12-(14)----12-(14)---8-(15)---8-(15)---8-(15)----||
|----12---------12--------9--------9--------9---------||
|-----------------------------------------------------||
|-10---------10---------7--------7--------7-----------||
|-----------------------------------------------------||


T T T T T T T T T T T T T T T
E E E E E E E E E E E E E E E
|-------15-------(17)------(20)------(22)------(17)-|
|---10-(15)---10-(17)---10-(20)---10-(22)---10-(17)-|
|----9---------9---------9---------9---------9------|
|---------------------------------------------------|
|-8---------8---------8---------8---------8---------|
|---------------------------------------------------|


T T T T T T T T T T T T T T T
E E E E E E E E E E E E E E E
|------(20)------(20)------(17)------(17)------(17)----||
|---10-(20)---10-(20)---10-(17)---10-(17)---10-(17)----||
|----9---------9---------9---------9---------9---------||
|------------------------------------------------------||
|-8---------8---------8---------8---------8------------||
|------------------------------------------------------||


T T T T T T T T T T T T T T T
E E E E E E E E E E E E E E E
|--------------------------------------------------------|
|----12-(17)----12-(17)----12-(15)----12-(15)----12-(15)-|
|----12-(17)----12-(17)----12-(16)----12-(16)----12-(16)-|
|--------------------------------------------------------|
|-10---------10---------10---------10---------10---------|
|--------------------------------------------------------|


T T T T T T T T T T T T T T T
E E E E E E E E E E E E E E E
|-------------------------------------------------||
|---9-(14)---9-(14)---9-(12)---9-(12)---9-(12)----||
|---9-(14)---9-(14)---9-(13)---9-(13)---9-(13)----||
|-------------------------------------------------||
|-7--------7--------7--------7--------7-----------||
|-------------------------------------------------||


T T T T T T T T T T T T T T T
E E E E E E E E E E E E E E E
|--------------------------------------------------------|
|----12-(17)----12-(17)----12-(15)----12-(15)----12-(15)-|
|----12-(17)----12-(17)----12-(16)----12-(16)----12-(16)-|
|--------------------------------------------------------|
|-10---------10---------10---------10---------10---------|
|--------------------------------------------------------|


T T T T T T T T T T T T T T T
E E E E E E E E E E E E E E E
|-------------------------------------------------||
|---9-(14)---9-(14)---9-(12)---9-(12)---9---------||
|---9-(14)---9-(14)---9-(13)---9-(13)---9-(14)----||
|-----------------------------------------(14)----||
|-7--------7--------7--------7--------7-----------||
|-------------------------------------------------||


T T T T T T T T T T T T T T T
E E E E E E E E E E E E E E E
||-----------------------------------------------|
||o-----(14)--------------------------------(14)-|
||----7-(14)---6-(16)---6-(14)---6-(16)---6-(14)-|
||----6--------7-(16)---7-(14)---7-(16)---7------|
||o----------------------------------------------|
||--5--------5--------5--------5--------5--------|


T T T T T T T T T T T T T T T
E E E E E E E E E E E E E E E
|------------------------------------------------||
|-----(14)---------------------------------------||
|---6-(14)---6-(16)---6-(14)---6-(14)---9-(14)---||
|---7--------7-(16)---7-(14)---7-(14)---9-(14)---||
|------------------------------------------------||
|-5--------5--------5--------5--------9----------||


T T T T T T T T T T T T T T T
E E E E E E E E E E E E E E E
|---------------------------------------------------|
|---10-(14)---10--------10--------10--------10-(14)-|
|---11-(14)---11-(16)---11-(14)---11-(16)---11-(14)-|
|----------------(16)------(14)------(16)-----------|
|-9---------9---------9---------9---------9---------|
|---------------------------------------------------|


T T T T T T T T T T T T T T T
E E E E E E E E E E E E E E E
|----------------------------------------------------||
|---10-(14)---10--------10--------10--------9-------o||
|---11-(14)---11-(16)---11-(14)---11-(14)---9-(14)---||
|----------------(16)------(14)------(14)-----(14)---||
|-9---------9---------9---------9---------7---------o||
|----------------------------------------------------||


T T T T T T T T T T T T T T T
E E E E E E E E E E E E E E E
|--------------------------------(12)----------|
|---7-(14)---7--------7-(14)---7-(12)---7-(14)-|
|---7-(14)---7-(16)---7-(14)---7--------7-(14)-|
|--------------(16)----------------------------|
|-5--------5--------5--------5--------5--------|
|----------------------------------------------|


T T T T T T T T T T T T T T T
E E E E E E E E E E E E E E E
|-----(14)-----(14)-----(12)-----(12)-----(12)----||
|---9-(14)---9-(14)---9-(12)---9-(12)---9-(12)----||
|---9--------9--------9--------9--------9---------||
|-------------------------------------------------||
|-7--------7--------7--------7--------7-----------||
|-------------------------------------------------||


T T T T T T T T T T T T T T T
E E E E E E E E E E E E E E E
|-----(12)--------------------------------(12)-|
|---7-(12)---7-(14)---7--------7-(14)---7-(12)-|
|---7--------7-(14)---7-(16)---7-(14)---7------|
|-----------------------(16)-------------------|
|-5--------5--------5--------5--------5--------|
|----------------------------------------------|


T T T T T T T T T T T T T T T
E E E E E E E E E E E E E E E
|-----(14)-----(14)-----(16)-----(16)-----(16)----||
|---9-(14)---9-(14)---9--------9--------9---------||
|---9--------9--------9-(16)---9-(16)---9-(16)----||
|-------------------------------------------------||
|-7--------7--------7--------7--------7-----------||
|-------------------------------------------------||


T T T T T T T T T T T T T T T
E E E E E E E E E E E E E E E
|------(17)------(17)------(17)------(17)------(14)-|
|---10-(17)---10-(17)---10-(17)---10-(17)---10-(14)-|
|---11--------11--------11--------11--------11------|
|---------------------------------------------------|
|-9---------9---------9---------9---------9---------|
|---------------------------------------------------|


T T T T T T T T T T T T T T T
E E E E E E E E E E E E E E E
|----------------------------------------------(12)----||
|---10-(16)---10-(16)---10-(16)---10-(16)---10-(12)----||
|---11-(16)---11-(16)---11-(16)---11-(16)---11---------||
|------------------------------------------------------||
|-9---------9---------9---------9---------9------------||
|------------------------------------------------------||


T T T T T T T T T T T T T T T
E E E E E E E E E E E E E E E
|---------------------------------------------------|
|---10--------10--------10--------10--------10------|
|---11-(14)---11-(14)---11-(16)---11-(16)---11-(16)-|
|------(14)------(14)------(16)------(16)------(16)-|
|-9---------9---------9---------9---------9---------|
|---------------------------------------------------|


T T T T T T T T T T T T T T T
E E E E E E E E E E E E E E E
|-----------------------------------------------------||
|-------------------------------------------9---------||
|---11--------11--------11--------11--------9-(14)----||
|------(16)------(16)------(16)------(16)-----(14)----||
|-9---------9---------9---------9---------7-----------||
|-----------------------------------------------------||


T T T T T T T T T T T T T T T
E E E E E E E E E E E E E E E
|----------------------------------------------|
|-----(14)--------------------------------(14)-|
|---6-(14)---6-(16)---6-(14)---6-(16)---6-(14)-|
|---7--------7-(16)---7-(14)---7-(16)---7------|
|----------------------------------------------|
|-5--------5--------5--------5--------5--------|


T T T T T T T T T T T T T T T
E E E E E E E E E E E E E E E
|-------------------------------------------------------||
|-----(14)----------------------------------------------||
|---4-(14)---4-(16)----11-(14)----11-(14)----11-(14)----||
|---5--------5-(16)-------(14)-------(14)-------(14)----||
|----------------------12---------12---------12---------||
|-3--------3--------10---------10---------10------------||


T T T T T T T T T T T T T T T
E E E E E E E E E E E E E E E
|----------------------------------------------|
|-----(14)-------------------------------------|
|---6-(14)---6-(16)---6-(14)---6-(16)---6-(14)-|
|---7--------7-(16)---7-(14)---7-(16)---7-(14)-|
|----------------------------------------------|
|-5--------5--------5--------5--------5--------|


T T T T T T T T T T T T T T T
E E E E E E E E E E E E E E E
|-------------------------------------------------------||
|-----(14)----------------------------------------------||
|---4-(14)---4-(16)----11-(14)----11---------11---------||
|---5--------5-(16)-------(14)-------(14)-------(16)----||
|----------------------12---------12-(14)----12-(16)----||
|-3--------3--------10---------10---------10------------||


T T T T T T T T T T T T T T T
E E E E E E E E E E E E E E E
|----------------------------------------------|
|-----(14)--------------------------------(14)-|
|---6-(14)---6-(16)---6-(14)---6-(16)---6-(14)-|
|---7--------7-(16)---7-(14)---7-(16)---7------|
|----------------------------------------------|
|-5--------5--------5--------5--------5--------|


T T T T T T T T T T T T T T T
E E E E E E E E E E E E E E E
|-------------------------------------------------------||
|-----(14)----------------------------------------------||
|---4-(14)---4-(16)----11-(14)----11-(14)----11-(14)----||
|---5--------5-(16)-------(14)-------(14)-------(14)----||
|----------------------12---------12---------12---------||
|-3--------3--------10---------10---------10------------||


T T T T T T T T T T T T T T T
E E E E E E E E E E E E E E E
|----------------------------------------------|
|----------------------------------------------|
|---9-(14)---9-(14)---9-(14)---9-(14)---9-(14)-|
|---9-(14)---9-(14)---9-(14)---9-(14)---9-(14)-|
|-7--------7--------7--------7--------7--------|
|----------------------------------------------|


T T T T T T T T T T T T T T T
E E E E E E E E E E E E E E E
|-------------------------------------------------||
|-------------------------------------------------||
|---9-(13)---9-(13)---9-(13)---9-(13)---9-(13)----||
|---9-(14)---9-(14)---9-(14)---9-(14)---9-(14)----||
|-7--------7--------7--------7--------7-----------||
|-------------------------------------------------||


T T T T T T T T T T T T T T
E E E E E E E E E E E E E E E
|----------------------------------------------|
|-----(15)-----(15)-----(15)-----(15)-----(15)-|
|---4-(14)---4-(14)---4-(14)---4-(14)---4-(14)-|
|---5--------5--------5--------5--------5------|
|----------------------------------------------|
|-3--------3--------3--------3--------3--------|


T T T T T T T T T T T T T T T
E E E E E E E E E E E E E E E
|-------------------------------------------------||
|-----(14)-----(14)-----(14)-----(14)-----(14)----||
|---6-(14)---6-(14)---6-(14)---6-(14)---6-(14)----||
|---7--------7--------7--------7--------7---------||
|-------------------------------------------------||
|-5--------5--------5--------5--------5-----------||


T T T T T T T T T T T T T T T
E E E E E E E E E E E E E E E
|----------------------------------------------|
|-----(14)-----(14)-----(14)-----(14)-----(14)-|
|---6-(14)---6-(14)---6-(14)---6-(14)---6-(14)-|
|---7--------7--------7--------7--------7------|
|----------------------------------------------|
|-5--------5--------5--------5--------5--------|


T T T T T T T T T T T T T T T
E E E E E E E E E E E E E E E
|-------------------------------------------------||
|---3--------3--------3--------3--------3---------||
|---4-(16)---4-(16)---4-(16)---4-(16)---4-(16)----||
|-----(16)-----(16)-----(16)-----(16)-----(16)----||
|-------------------------------------------------||
|-3--------3--------3--------3--------3-----------||


T T T T T T T T T T T T T T T
E E E E E E E E E E E E E E E
|----------------------------------------------|
|----------------------------------------------|
|---6-(14)---6-(14)---6-(14)---6-(14)---6-(14)-|
|---7-(14)---7-(14)---7-(14)---7-(14)---7-(14)-|
|----------------------------------------------|
|-5--------5--------5--------5--------5--------|


T T T T T T T T T T T T T T T
E E E E E E E E E E E E E E E
|-------------------------------------------------||
|-----(15)-----(15)-----(15)-----(15)-----(15)----||
|---4-(14)---4-(14)---4-(14)---4-(14)---4-(14)----||
|---5--------5--------5--------5--------5---------||
|-------------------------------------------------||
|-3--------3--------3--------3--------3-----------||


T T T T T T T T T T T T T T T
E E E E E E E E E E E E E E E
|----------------------------------------------|
|-----(14)-----(14)-----(14)-----(14)-----(14)-|
|---6-(14)---6-(14)---6-(14)---6-(14)---6-(14)-|
|---7--------7--------7--------7--------7------|
|----------------------------------------------|
|-5--------5--------5--------5--------5--------|


T T T T T T T T T T T T T T T
E E E E E E E E E E E E E E E
|-------------------------------------------------||
|---3--------3--------3--------3--------3---------||
|---4-(16)---4-(16)---4-(16)---4-(16)---4-(16)----||
|-----(16)-----(16)-----(16)-----(16)-----(16)----||
|-------------------------------------------------||
|-3--------3--------3--------3--------3-----------||


T T T T T T T T T T T T T T T
E E E E E E E E E E E E E E E
|-------------------------------------------------*|
|-------------------------------------------------*|
|---6-(14)---6-(14)---6-(14)---6-(14)---6-(14)----*|
|---7-(14)---7-(14)---7-(14)---7-(14)---7-(14)----*|
|-------------------------------------------------*|
|-5--------5--------5--------5--------5-----------*|

Тональность:

Это должно быть в ТОП-листе! - Топ-лист композиций



Назад
Рекомендуем посмотреть другие песни исполнителя «Satriani Joe»:

  • Комменты Fb ()
  • Комменты ВК



Добавить в Избранное Браузера
Сохранить здесь Очистить


x

0


+
-

+
-

-

Авторизация





Зарегистрироваться

M

Дата и время

  • 07:39:11
     

Социальные ссылки


Наши приложения

  • Muzbank App Play Market
  • Muzbank Amazon App