MUZBANK


МУЗЫКАЛЬНО-ИНФОРМАЦИОННЫЙ БАНК





SSatriani Joe • Love Thing (аккорды и текст - chords & lyrics)


527

Print

Видео «Love Thing (Satriani Joe)»

Видео клипы к песне подбираются автоматически сайтом youtube. Возможны некоторые несоответствия клипов песне.

↑ Спрятать рекламу ↑






Backround 1
E---0--0--0-----4--4-----2--2-------------------------------------------
B---0--0--0-----5--5-----0--0-------------------------------------------
G---4--4--4-----4--4-----4--4-------------------------------------------
D---4--4--4-----4--4-----4--4-------------------------------------------
A-----------------------------------------------------------------------
E-----------------------------------------------------------------------


Backround 2
E-----------------------------------------------------------------------
B-----------------------------------------------------------------------
G---9--9--8-----6--6-----4--4-------------------------------------------
D-----------------------------------------------------------------------
A-----------------------------------------------------------------------
E-----------------------------------------------------------------------





Lead- with heavy wah and distortion
E-----------------------------------------------------------------------
B-----------------------------------------------------------------------
G-----------------------------------------------------------------------
D---------------------2/4⁄2---------------------------------------------
A------------------2---------2--2-----------2--4--6^--(6)--4⁄2--2-------
E-----------------------------------------------------------------------



E-----------------------------------------------------------------------
B-----------------------------------------------------------------------
G----------------------------------------------------6--6--4--4---------
D------------2/4⁄2--------2--2-----------6--6--7--7---------------------
A---------2---------4--2------------------------------------------------
E-----------------------------------------------------------------------




Solo 1
E------------------7-----5--4--2--4^--(4)--2--4--0--------------4-------
B-----------------------------------------------------------------------
G-----------------------------------------------------------------------
D-----------------------------------------------------------------------
A-----------------------------------------------------------------------
E-----------------------------------------------------------------------



E---4--2--0-----------------------7-----5--4--2--4^--(4)--2--0-----0----
B------------2--0-----------------------------------------------2-------
G------------------1--4-------------------------------------------------
D-----------------------------------------------------------------------
A-----------------------------------------------------------------------
E-----------------------------------------------------------------------



E---4--4--7---------/9-----11-----7-------------------------------------
B------------7--5-------------------------------------------------------
G-----------------------------------------------------------------------
D-----------------------------------------------------------------------
A-----------------------------------------------------------------------
E-----------------------------------------------------------------------


back to the Lead again
E-------------12--14--12------------------------------------------------
B---------12--------------12--------------------------------------------
G--------------------------------------4--6--8^--(8)--6--4--4-----------
D-----------------------------------------------------------------------
A-----------------------------------------------------------------------
E-----------------------------------------------------------------------


Solo 2
E----------------------------------19-----17--16--14-----12--14--16-----
B-----------------------------------------------------------------------
G-----------------------------------------------------------------------
D---------2/4⁄2--------2------------------------------------------------
A------2---------4--2---------------------------------------------------
E-----------------------------------------------------------------------



E---------19--19-----17--16--14-----12--14------------------------------
B-------------------------------------------16^--(16)-----12--14--------
G-----------------------------------------------------------------------
D-----------------------------------------------------------------------
A-----------------------------------------------------------------------
E-----------------------------------------------------------------------




I don't feel like tabbing any more of it, just stay in this key:

E-----------------------9--11--12---------------------------------------
B------------9--10--12--------------------------------------------------
G-----9--11-------------------------------------------------------------
D-----------------------------------------------------------------------
A-----------------------------------------------------------------------
E-----------------------------------------------------------------------

Тональность:

Это должно быть в ТОП-листе! - Топ-лист композиций



Назад
Рекомендуем посмотреть другие песни исполнителя «Satriani Joe»:

  • Комменты Fb ()
  • Комменты ВК



Добавить в Избранное Браузера
Сохранить здесь Очистить


x

0


+
-

+
-

-

Авторизация





Зарегистрироваться

M

Дата и время

  • 09:57:53
     

Социальные ссылки


Наши приложения

  • Muzbank App Play Market
  • Muzbank Amazon App