MUZBANK


МУЗЫКАЛЬНО-ИНФОРМАЦИОННЫЙ БАНК





SSatriani Joe • Sleep Walk (аккорды и текст - chords & lyrics)


470

Print

Видео «Sleep Walk (Satriani Joe)»

Видео клипы к песне подбираются автоматически сайтом youtube. Возможны некоторые несоответствия клипов песне.

↑ Спрятать рекламу ↑






E|---------------------------------------15--17--22(24)--19--------------------|
B|-------------10--10⁄-------1-------3------------------------------1----------|
G|---9---9------9---9⁄---1---1---1---4--------------------------2---2---2--2/4-|
D|--10--10-----10--10⁄---3-------3---5--------------------------3-------3--3/5-|
A|-----------------------------------------------------------------------------|
E|-----------------------------------------------------------------------------|

E|-----------------------------------------------------------------------------|
B|--13-----⁄8--8----6---8---8/9----⁄8---6-----13------------6---8---8/9--------|
G|------------------7---9---9/10---⁄9---7------------12-----7---9---9/10----10-|
D|-----------------------------------------------------------------------------|
A|------------------8--10--10/11---⁄10--8-------------------8--10--10/11-------|
E|-----------------------------------------------------------------------------|

E|-----------------------------------------8-12--------------------------------|
B|--6h8----5---8--5---------------------10-------------------3/5--3/5--3/5-----|
G|-------------------5-------------9-12----------5--5--5--5------------------5-|
D|-----------------------7------10---------------------------3/5--3/5--3/5-----|
A|-----------------------------------------------------------------------------|
E|-----------------------------------------------------------------------------|

E|-15--17--22(24)--19----------------------------------------------------------|
B|-----------------------------------------13-⁄8--8------6---8---8/9----⁄8---6-|
G|---------------------2---2---2---2---2/4---------------7---9---9/10---⁄9---7-|
D|---------------------3---3---3---3---3/5-------------------------------------|
A|-------------------------------------------------------8--10--10/11---⁄10--8-|
E|-----------------------------------------------------------------------------|

E|------------------------------------------------------------------------1215-|
B|-13----13-----6---8---8/9----⁄8---6--6h8---5---8--5-------------------13-----|
G|----12----12--7---9---9/10---⁄9---7------------------5--------------14-------|
D|----------------------------------------------------------7-------14---------|
A|--------------8--10--10/11---⁄10--8---------------------------1215-----------|
E|-----------------------------------------------------------------------------|

E|------------------------------------------------------------------------|
B|------------------3/5---3/5---3/5---------------------------------------|
G|--5---5---5---5---------------------5--------2------2------2--/--9---9--|
D|------------------3/5---3/5---3/5------------3------3------3--/--10--10-|
A|------------------------------------------------------------------------|
E|------------------------------------------------------------------------|

E|-------------------10h12--12-----10--8------------10h12--10----8--10---------|
B|-------10--10---------------------------9----9------------------------8----8-|
G|-----------------------------------------------------------------------------|
D|--10-------------------------------------------------------------------------|
A|-----------------------------------------------------------------------------|
E|-----------------------------------------------------------------------------|

E|------------------------------8-8---8-8---------------------------|
B|--------10--10---------8----------8-----8-11-8--------------------|
G|--8--9-----------8--9--------------------------10-8----10----8----|
D|----------------------------------------------------10----10---10-|
A|------------------------------------------------------------------|
E|------------------------------------------------------------------|

E|---------12---10---8--10----------12---10-----8---3--3⁄----4/6--4/6--4/6---3-|
B|-10--10-------------------9----9------------------3--3⁄----4/6--4/6--4/6---3-|
G|-----------------------------------------------------------------------------|
D|-----------------------------------------------------------------------------|
A|-----------------------------------------------------------------------------|
E|-----------------------------------------------------------------------------|

E|--11(13)-8---------------------------------------------------------13--------|
B|-----------11-8-------------------13⁄8--8--8--6---8--8/9---⁄8---6-----12--12-|
G|----------------10-8--------------------------7---9--9/10--⁄9---7------------|
D|---------------------10-8----------------------------------------------------|
A|--------------------------10-8-10-------------8--10-10/11--⁄10--8------------|
E|-----------------------------------------------------------------------------|

E|-----------------------------------------------------------------------------|
B|-6---8---8/9----⁄8---6--6h8----5---8--5------------------------5-----5--4--3-|
G|-7---9---9/10---⁄9---7-------------------5-----5---5---5---5-----------------|
D|--------------------------------------------7------------------5-----5--4--3-|
A|-8--10--10/11---⁄10--8-------------------------------------------------------|
E|-----------------------------------------------------------------------------|

E|--15--17--22(24)--19---------|
B|---------------------------8-|
G|--------------------------7--|
D|-------------------------5---|
A|------------------------7----|
E|-----------------------------|

Тональность:

Это должно быть в ТОП-листе! - Топ-лист композиций



Назад
Рекомендуем посмотреть другие песни исполнителя «Satriani Joe»:

  • Комменты Fb ()
  • Комменты ВК



Добавить в Избранное Браузера
Сохранить здесь Очистить


x

0


+
-

+
-

-

Авторизация





Зарегистрироваться

M

Дата и время

  • 07:51:45
     

Социальные ссылки


Наши приложения

  • Muzbank App Play Market
  • Muzbank Amazon App