MUZBANK


МУЗЫКАЛЬНО-ИНФОРМАЦИОННЫЙ БАНК





SSatriani Joe • Slow And Easy (аккорды и текст - chords & lyrics)


459

Print

Видео «Slow And Easy (Satriani Joe)»

Видео клипы к песне подбираются автоматически сайтом youtube. Возможны некоторые несоответствия клипов песне.

↑ Спрятать рекламу ↑





Part "A"
E|-------------|---------------------|----------------|------------------------|
B|-------------|--------/12----------|----------12h13p|-12⁄⁄10//12⁄⁄10---------|
G|---16-bars---|---------------12----|-14-------------|---------------------12-|
D|-----rest----|---------------------|----------------|------------------------|
A|-------------|---------------------|----------------|------------------------|
E|-------------|---------------------|----------------|------------------------|

E|--------------------------|----------------------|----------|----------------|
B|--------------------------|---------/12----------|----------|----------------|
G|-14----p12p10⁄9----10p9⁄7h|-9--------------12----|-14-------|----------------|
D|--------------------------|----------------------|----------|------------/14-|
A|--------------------------|----------------------|----------|----------------|
E|--------------------------|----------------------|----------|----------------|

Part "B"
E|-----------------------|---------------------|------------------------|
B|-----------------------|--------/12----------|-----------------12--13-|
G|-----------------------|---------------12----|-14----------14---------|
D|/14---------p(12)⁄-----|---------------------|------------------------|
A|-----------------------|---------------------|------------------------|
E|-----------------------|---------------------|------------------------|

E|-----------------------|--------------------------|-------------------|
B|-12--------12----------|--------------------------|---------/12-------|
G|-----------------12----|/14-----p12p10⁄9----10----|----------------12-|
D|-----------------------|--------------------------|-9-----------------|
A|-----------------------|--------------------------|-------------------|
E|-----------------------|--------------------------|-------------------|

Part "C"
E|-------------------|---------|---------|------------------|------------------|
B|-------------------|---------|---------|------------------|------------------|
G|-14----------------|---------|---------|-10---------------|-9--------10----7-|
D|-------------------|---------|---------|------------------|------------------|
A|-------------------|---------|---------|------------------|------------------|
E|-------------------|---------|---------|------------------|------------------|

E|---------|--------------------|-----------------------|----------------------|
B|---------|--------------------|-------10---------p8p6⁄|-5--------8---p6-p5-⁄-|
G|---------|--------------7--9--|-10--------------------|----------------------|
D|---------|-----------7--------|-----------------------|----------------------|
A|---------|--------------------|-----------------------|----------------------|
E|---------|--------------------|-----------------------|----------------------|

E|------------------|-----------------------|---------------------|
B|-3----------------|--------------------8--|/10----10---10-⁄⁄⁄⁄8-|
G|------------------|----------7--9--10-----|---------------------|
D|------------------|-------7---------------|---------------------|
A|------------------|-----------------------|---------------------|
E|------------------|-----------------------|---------------------|

E|-----------------------|-------------------------|------------------------|
B|-8⁄⁄⁄⁄6------------10--|-11----11---11----p10----|-10⁄⁄⁄⁄8--------8-10-11-|
G|---------------12------|-------------------------|------------------------|
D|-----------------------|-------------------------|------------------------|
A|-----------------------|-------------------------|------------------------|
E|-----------------------|-------------------------|------------------------|

E|----/10----10--10⁄⁄8----|-8⁄⁄⁄⁄6----6----6/8---|-8///10-----10----12-|
B|------------------------|----------------------|---------------------|
G|------------------------|----------------------|---------------------|
D|------------------------|----------------------|---------------------|
A|------------------------|----------------------|---------------------|
E|------------------------|----------------------|---------------------|
? ? ? ? ? ?
) ⁄ ) ⁄ ) ⁄ ) ⁄ ) ⁄ ) ⁄
E|-12---p10--------10-12p(10)|-12-------(12)-------|(12)--(12)--(12)--(12)-|
B|---------------------------|---------------------|-----------------------|
G|---------------------------|---------------------|-----------------------|
D|---------------------------|---------------------|-----------------------|
A|---------------------------|---------------------|-----------------------|
E|---------------------------|---------------------|-----------------------|

Part "D" (Solo)
E|-------------------|---------|-----------------------|--------------------|
B|-------------------|---------|---------------12------|--------------------|
G|---Play-part-"A"---|---------|-------14--------------|----------------16p-|
D|-----(8-bars)------|---------|-14--------------------|--------------------|
A|-------------------|---------|-----------------------|--------------------|
E|-------------------|---------|-----------------------|--------------------|

E|---------------------------|-------------------|-------------------|
B|---------------10-------12p|-10----------------|------10-///13-p12-|
G|-14-----p12p10-------------|-------------------|----9--------------|
D|---------------------------|-------------------|-------------------|
A|---------------------------|-------------------|-------------------|
E|---------------------------|-------------------|-------------------|

E|------------------|---------------------|------------------------------------|
B|/15--p13-15////17-|-15------15--17--15--|-17-h18p17p15----17--15--17-h18p17p-|
G|------------------|-----17--------------|------------------------------------|
D|------------------|---------------------|------------------------------------|
A|------------------|---------------------|------------------------------------|
E|------------------|---------------------|------------------------------------|

E|---------15----------------------|------17-----15-----------|
B|-15--17------18--17--15------15--|-17----------------18--18-|
G|-------------------------17------|--------------------------|
D|---------------------------------|--------------------------|
A|---------------------------------|--------------------------|
E|---------------------------------|--------------------------|

E|---------------------------------|--------|
B|-18-p17--17--15--15⁄⁄13--13⁄⁄12--|-12⁄⁄10-|
G|---------------------------------|--------|
D|---------------------------------|--------|
A|---------------------------------|--------|
E|---------------------------------|--------|

? ?
E|------)⁄--)⁄-------------|-----------------------12--|-13-|
B|-12--------------10--13--|-13/15---------13--15------|----|
G|-------------12----------|---------------------------|----|
D|-------------------------|---------------------------|----|
A|-------------------------|---------------------------|----|
E|-------------------------|---------------------------|----|

E|-----17--------15--13--|-------------------|/15--/15--/15--/15---13------|
B|-----------------------|-17----------------|--------------------------17-|
G|-----------------------|-------------------|-----------------------------|
D|-----------------------|-------------------|-----------------------------|
A|-----------------------|-------------------|-----------------------------|
E|-----------------------|-------------------|-----------------------------|
full full
) ⁄ ) ?
E|-------------------|---------15--------|-13---15------|----------)-----------|
B|-15----------------|-------------------|--------------|--------17-----15-----|
G|-------------------|-------------------|--------------|-------------------17-|
D|-------------------|-------------------|--------------|----------------------|
A|-------------------|-------------------|--------------|----------------------|
E|-------------------|-------------------|--------------|----------------------|

full
E|-----------------------|-----------------|---)-----------18-|
B|-15----17--------18----|-----------------|-20------20-------|
G|-----------------------|-----------------|------------------|
D|-----------------------|-----------------|------------------|
A|-----------------------|-----------------|------------------|
E|-----------------------|-----------------|------------------|

full
E|---)---------------------|-----------------------|----------------------|
B|-20------20--18----20----|-18--------------13----|-13--15------15----17-|
G|-------------------------|-------------14--------|----------------------|
D|-------------------------|-----------------------|----------------------|
A|-------------------------|-----------------------|----------------------|
E|-------------------------|-----------------------|----------------------|

E|-------13----13----15----|-15----------------|-----------------|----------|
B|-17----------------------|-------------------|-----------------|----------|
G|-------------------------|-------------------|-----------------|---4-bars-|
D|-------------------------|-------------------|-----------------|----rest--|
A|-------------------------|-------------------|-----------------|----------|
E|-------------------------|-------------------|-----------------|----------|

(Part "B" - variation)
E|---------------------|-------------------------|--------------------|
B|--------/12----------|-----------------12--13--|-12--------12-------|
G|---------------12----|-14----------14----------|-----------------12-|
D|---------------------|-------------------------|--------------------|
A|---------------------|-------------------------|--------------------|
E|---------------------|-------------------------|--------------------|

E|--------------------------|----------------------|------------------------|
B|--------------------------|---------/12----------|-----------------12--13-|
G|/14-----p12p10⁄9----10----|----------------12----|-14----------14---------|
D|--------------------------|-9--------------------|------------------------|
A|--------------------------|----------------------|------------------------|
E|--------------------------|----------------------|------------------------|

E|-----------------------|-------------------|-------------------|-------------|
B|-12-------/12----------|-------------------|-------------------|-------------|
G|-----------------12----|-14----------------|---Play-part-"C"---|-----Outro---|
D|-----------------------|-------------------|------18-bars------|---no-guitar-|
A|-----------------------|-------------------|-------------------|---16+ bars--|
E|-----------------------|-------------------|-------------------|-------------|

Тональность:

Это должно быть в ТОП-листе! - Топ-лист композиций



Назад
Рекомендуем посмотреть другие песни исполнителя «Satriani Joe»:

  • Комменты Fb ()
  • Комменты ВК



Добавить в Избранное Браузера
Сохранить здесь Очистить


x

0


+
-

+
-

-

Авторизация





Зарегистрироваться

M

Дата и время

  • 04:24:52
     

Социальные ссылки


Наши приложения

  • Muzbank App Play Market
  • Muzbank Amazon App