MUZBANK


МУЗЫКАЛЬНО-ИНФОРМАЦИОННЫЙ БАНК





SSatriani Joe • Summer Song (аккорды и текст - chords & lyrics)


695

Print

Видео «Summer Song (Satriani Joe)»

Видео клипы к песне подбираются автоматически сайтом youtube. Возможны некоторые несоответствия клипов песне.

↑ Спрятать рекламу ↑





Intro
E|------------------------------|
B|------------------------------|
G|---------------------------|
D|------------------------|
A|------------------|
E|------------------------------|

E|------------------------------|
B|------------------------------|
G|---------------------------|
D|------------------------|
A|------------------|
E|------------------------------|

E|---------------------------|-----------------|
B|---------------------------|-----------------|
G|---------------------------|-----------------|
D|------------------------|--------------|
A|------------|--------|
E|---------------------------|-----------------|

E|------------------------------|------------------------------|
B|------------------------------|------------------------------|
G|---------------------------|---------------------------|
D|------------------------|------------------------|
A|------------------|------------------|
E|------------------------------|------------------------------|

E|---------|------------------------|------------------------------|
B|---------|------------------------|------------------------------|
G|---------|------------------------|---------------------------|
D|---------|---------------------|------------------------|
A|---------|------------|------------------|
E|---------|------------------------|------------------------------|
~~~
E|--------------------|-----------------------|--------------|-----|
B|-------10-----------|-----------------------|--------------|-----|
G|---x-9----9--11b12==|=(11)r(11)--9--7--9s11-|--9--9-(9)----|-(9)-|
D|--------------------|-----------------------|--------------|-----|
A|--------------------|-----------------------|--------------|-----|
E|--------------------|-----------------------|--------------|-----|

E|-------------------------|----------------------|
B|------------10-----------|----------------------|
G|-(9)s=(0)-9----9--11b12==|=(11)r(11)--9--7--7s9-|
D|-------------------------|----------------------|
A|-------------------------|----------------------|
E|-------------------------|----------------------|

E|---------------|------------|
B|---------------|------------|
G|-(9)-------9s2-|-(2)----(2)-|
D|---------------|------------|
A|---------------|------------|
E|---------------|------------|

E|----------------------------|--------------------------|
B|-------------10-------------|--------------------------|
G|-(2)s=(19)-9----9-11-11b12==|=(11)-(11)r(11)--9s7s9-11-|
D|----------------------------|--------------------------|
A|----------------------------|--------------------------|
E|----------------------------|--------------------------|

E|-------------------------|----------|
B|-------------------------|----------|
G|-11b12r=(11)p9-9s7--9s11-|--9---(9)-|
D|-------------------------|----------|
A|-------------------------|----------|
E|-------------------------|----------|

E|------------------------|--------------------------------|
B|--------10h12-14-14b15==|=(14)r(14)--12-(12)-------------|
G|-(9)--------------------|--------------------14--14b16==-|
D|------------------------|--------------------------------|
A|------------------------|--------------------------------|
E|------------------------|--------------------------------|

E|-------------------|------|
B|-------------------|------|
G|-(14)r==(14)-14----|-(14)-|
D|-------------------|------|
A|-------------------|------|
E|-------------------|------|

E|------------17------------|--------------------------|
B|---------17----17--19b20==|=(19)r(19)--17--15--17s19-|
G|-(14)⁄--------------------|--------------------------|
D|--------------------------|--------------------------|
A|--------------------------|--------------------------|
E|--------------------------|--------------------------|

E|-----------------|------|
B|--17--17-(17)----|-(17)-|
G|-----------------|------|
D|-----------------|------|
A|-----------------|------|
E|-----------------|------|

E|------------17------------|-----------------------|
B|-(17)⁄---17----17--19b20==|=(19)r(19)--17--15--17-|
G|--------------------------|-----------------------|
D|--------------------------|-----------------------|
A|--------------------------|-----------------------|
E|--------------------------|-----------------------|

E|--------------|-----------------------------|
B|-(17)---------|-----------------------------|
G|--------------|--------------------------|
D|------------7s|=5s7-------------------|
A|--------------|--------------------|
E|--------------|-----------------------------|

E|----------------17-------------|
B|-------------17----17-19-19b20-|
G|-------------------------------|
D|-------------------------------|
A|-------------------------|
E|----------------------------|

E|--------------------------------------------------|
B|-(19)--19b20==(19)r(19)b20==(19)r(19)-17p15h17-19-|
G|--------------------------------------------------|
D|--------------------------------------------------|
A|--------------------------------------------------|
E|--------------------------------------------------|

E|------------------------|------------|
B|-19b20r=(19)--17p15--19-|--17---(17)-|
G|------------------------|------------|
D|------------------------|------------|
A|------------------------|------------|
E|------------------------|------------|

E|--------------17h19-21-21b22==-|
B|-(17)--(17)⁄-------------------|
G|-------------------------------|
D|-------------------------------|
A|-------------------------------|
E|-------------------------------|

E|-(21)r(21)--19-(19)-17--17b19==|=(17)r==(17)-[17]-|
B|-------------------------------|------------------|
G|-------------------------------|------------------|
D|-------------------------------|------------------|
A|-------------------------------|------------------|
E|-------------------------------|------------------|

E|-(17)-------x⁄-------||---8b10-------8b10-|
B|------------x⁄-----5-||-------------------|
G|---------------------||-------------------|
D|---------------------||-------------------|
A|---------------------||-------------------|
E|---------------------||-------------------|

E|-8-5-----5-(5)----------|-----------------------------|
B|-----8b9-------8b10---8-|-7b8r(7)---5-----------------|
G|------------------------|-------------7-5b6-----------|
D|------------------------|-------------------7---[5]---|
A|------------------------|---------------------------7-|
E|------------------------|-----------------------------|

E|-------------------------|---8b10-------8b10-(8)-|
B|-------------------------|-----------------------|
G|-------------------------|-----------------------|
D|-------------------------|-----------------------|
A|-5s3---------------------|-x---------------------|
E|-----5-3b5-(3)--(3)S12S==|=x---------------------|

E|-8-5-----5-(5)----------|-------------------------|
B|-----8b9-------8b10-----|-------------------------|
G|------------------------|-----------5-(5)-5-7s9-7-|
D|----------------------3-|-(3)-3-5s7---------------|
A|------------------------|-------------------------|
E|------------------------|-------------------------|

E|-----------------------------------------------------|
B|-----13b15r==(13)-13b15r(13)b15==(13)r==(13)b15-(13)-|
G|---x-------------------------------------------------|
D|-----------------------------------------------------|
A|-----------------------------------------------------|
E|-----------------------------------------------------|

E|----------------------------------|
B|-13b17r(13)-10----10--(10)⁄-------|
G|---------------12-----------11s12-|
D|----------------------------------|
A|----------------------------------|
E|----------------------------------|

E|--------------------------|-------------------|
B|--------------------------|-------------------|
G|-(12)-11---9s7-9s11---9s7-|-7s9s2-2-2----(2)/-|
D|--------------------------|-------------------|
A|--------------------------|-------------------|
E|--------------------------|-------------------|

E|-----8b10========(8)r====(8)-5-|-8b9-5---5-(5)------|
B|-------------------------------|-------8----------6-|
G|-(0)---------------------------|--------------------|
D|-------------------------------|--------------------|
A|-------------------------------|--------------------|
E|-------------------------------|--------------------|

E|------------8-(8)---10s12-10-|-(10)-10-----------------20b22-|
B|-(6)-6-8s10------------------|------10-----------------------|
G|-----------------------------|---------------------------|
D|-----------------------------|----------0---(0)----------|
A|-----------------------------|-------------------------------|
E|-----------------------------|-------------------------------|

E|-(20)-20---17--------------------------|
B|--------------20b22r(20)-17------------|
G|------------------------------19b21-17-|
D|---------------------------------------|
A|---------------------------------------|
E|---------------------------------------|

E|-----------------------------|-------------------------------|
B|-20b22-----xsx⁄--------------|--------h0-15b17--(15)---------|
G|-----------xsx⁄-11b12r(11)-9-|-(9)s13p=0-------------9-11-12-|
D|-----------xsx⁄--------------|-------------------------------|
A|-----------------------------|-------------------------------|
E|-----------------------------|-------------------------------|

E|---------------------------17-|-20b21-17----17-(17)--------|
B|---------15-18b20----20b22----|----------20----------20b22-|
G|-(12)s16----------------------|----------------------------|
D|------------------------------|----------------------------|
A|------------------------------|----------------------------|
E|------------------------------|----------------------------|
~~~~~~
E|-------------------------------|
B|-(20)--------------------------|
G|-----------------------------3-|
D|-------------------------------|
A|-------------------------------|
E|-------------------------------|

E|-------------------|----------------|------------------3-|
B|---------------[3]-|------3---------|------3-----3-4-5---|
G|-(3)--(3)----5-----|-3--5---3-5-3-5-|-(5)----5b6---------|
D|-------------------|----------------|--------------------|
A|-------------------|----------------|--------------------|
E|-------------------|----------------|--------------------|

E|-6---3---------------|---------------------------------------------|
B|---5---5-(5)-3s1-----|---------------------------------------------|
G|-----------------3b5r|=(3)b5==(3)r(3)b5==(3)r(3)b5==(3)r(3)-[3]b5r-|
D|---------------------|---------------------------------------------|
A|---------------------|---------------------------------------------|
E|---------------------|---------------------------------------------|

E|-------------------------------------|
B|-------------------------------------|
G|-([3])b5==([3])r([3])b5==([3])r([3])-|
D|-------------------------------------|
A|-------------------------------------|
E|-------------------------------------|

E|----------------------|--------------------------------|
B|----------------------|-------------------------/x-----|
G|----------------------|-------------------------/x-[0]-|
D|-3s5s3p2-3p2----------|-------------------------/x-----|
A|-------------1b3==(1)r|=(1)p=0-------------------------|
E|----------------------|--------1p==0---(0)--(0)--------|

E|-------------------------------------|
B|-------------------------------------|
G|-3p0-3p0-0-5p0-0-[6]p0-[6]p0-0-7p0-0-|
D|-------------------------------------|
A|-------------------------------------|
E|-------------------------------------|

E|------------------------------------------|
B|------------------------------------------|
G|-10p0-10p0-0-[12]p0-0-10p0-10p0-0-12p0-15-|
D|------------------------------------------|
A|------------------------------------------|
E|------------------------------------------|

E|----------------------------------------|
B|----------------------------------------|
G|-15p0-15p0-0-12p0-15-15p0-15p0-0-17p0-0-|
D|----------------------------------------|
A|----------------------------------------|
E|----------------------------------------|

E|------------------------------------------------|
B|--------------------------------------------0-0-|
G|-19s20p0-21-21p0-0-19p0-19s20-20s19h21-21p0-----|
D|------------------------------------------------|
A|------------------------------------------------|
E|------------------------------------------------|

E|-22p15-22p15-15-21p15-15-20p15-20p15----20p15-18-20p-|
B|-------------------------------------18--------------|
G|-----------------------------------------------------|
D|-----------------------------------------------------|
A|-----------------------------------------------------|
E|-----------------------------------------------------|

E|-18p15h18-15h17-18p17p15----15-18-20p18p15h19-15h=-|
B|-------------------------18------------------------|
G|---------------------------------------------------|
D|---------------------------------------------------|
A|---------------------------------------------------|
E|---------------------------------------------------|

E|-17-18p17p15----------------------------------|------------------------|
B|-------------18-15-17-18p17p15----15----------|-18b20--(18)----/x------|
G|-------------------------------18----18-17p15-|----------------/x-0-14-|
D|----------------------------------------------|----------------/x------|
A|----------------------------------------------|--------------4---------|
E|----------------------------------------------|------------------------|

E|---------------------------|--------------------------|
B|---------------------------|-----------------------17-|
G|-(14)-------(14)---(14)-11-|-(11)-------(11)s==8-0-17-|
D|---------------------------|--------------------------|
A|---------------------------|--------------------------|
E|---------------------------|--------------------------|

E|-------------------------------|------------------------17b19-|
B|-(17)-----(17)-(17)---(17)-----|------------------------------|
G|-(17)-----(17)-(17)---(17)-h14-|-(14)------(14)-(14)⁄---------|
D|-------------------------------|------------------------------|
A|-------------------------------|------------------------------|
E|-------------------------------|------------------------------|

E|(17)-17-14h17p14---14--------------------|
B|----------------17---14-17p14------------|
G|-----------------------------17p16-17-16p|
D|-----------------------------------------|
A|-----------------------------------------|
E|-----------------------------------------|

E|----------------------------------------|
B|--------14-17p14--14--------------20b21-|
G|14h16h17--------17--17-16p14s16-0-------|
D|----------------------------------------|
A|----------------------------------------|
E|----------------------------------------|

E|-17--17-----------17------17-----17-20b22r(20)|
B|-------20b22-(20)----20b22--20b22-------------|
G|----------------------------------------------|
D|----------------------------------------------|
A|----------------------------------------------|
E|----------------------------------------------|

E|-17----------------------17b19====-|
B|---20b22====(20)r-(20)⁄------------|
G|-----------------------------------|
D|------------------------0----------|
A|-----------------------------------|
E|-----------------------------------|

E|-(17)r(17)-14b15==(14)r(14)----------|--------------------------|
B|----------------------------15-13s12-|--------------------------|
G|-------------------------------------|-14-12s11-----------------|
D|-------------------------------------|----------12-10s12--------|
A|-------------------------------------|-------------------10s12s-|
E|-------------------------------------|--------------------------|

E|-------------------|----------------------|
B|-------------------|----------------/x⁄---|
G|-------------------|----------------/x⁄---|
D|-------------------|----------------/x⁄-0-|
A|-10s9-10p9-7s9s7s5-|-7s5-2-2s5-(5)--------|
E|-------------------|----------------------|

E|------------------------|-----------------12----|
B|----------9-10-11-12-12-|-11-12-13-14-15-----17-|
G|-9--11b13---------------|-----------------------|
D|------------------------|-----------------------|
A|------------------------|-----------------------|
E|------------------------|-----------------------|

E|------------16-17-18-19-20-21-|-22-|
B|-(17)-19b21-------------------|----|
G|------------------------------|----|
D|------------------------------|----|
A|------------------------------|----|
E|------------------------------|----|

E|--------------------|-----------------------|--------------|-----|
B|-------10-----------|-----------------------|--------------|-----|
G|---x-9----9--11b12==|=(11)r(11)--9--7--9s11-|--9--9-(9)----|-(9)-|
D|--------------------|-----------------------|--------------|-----|
A|--------------------|-----------------------|--------------|-----|
E|--------------------|-----------------------|--------------|-----|

E|------------------------|----------------------|
B|------10---10-----------|----------------------|
G|-(9)-----9----9--11b12==|=(11)r(11)--9--7--7s9-|
D|------------------------|----------------------|
A|------------------------|----------------------|
E|------------------------|----------------------|

E|------------------------|----------------------|
B|------------------------|----------------------|
G|-(9)----(9)-9s12--------|----------------------|
D|-----------------12s[7]-|-([7])----([7])-7s5s7-|
A|------------------------|----------------------|
E|------------------------|----------------------|

E|---------------------|----------------------|
B|------10-------------|----------------------|
G|----9----9-11-11b12==|=(11)r=(11)--9s7s9-11-|
D|---------------------|----------------------|
A|---------------------|----------------------|
E|---------------------|----------------------|

E|------------------------|----------|
B|------------------------|----------|
G|-11b12r=(11)--9s7--9s11-|--9---(9)-|
D|------------------------|----------|
A|------------------------|----------|
E|------------------------|----------|

E|------------------------|--------------------------------|
B|--------10h12-14-14b15==|=(14)r(14)--12-(12)-------------|
G|-(9)--------------------|--------------------14--14b16==-|
D|------------------------|--------------------------------|
A|------------------------|--------------------------------|
E|------------------------|--------------------------------|

E|-------------------|-----------------10h12-|
B|-------------------|-----------10s20-------|
G|-(14)r==(14)-14----|-(14)------------------|
D|-------------------|-----------------------|
A|-------------------|-----------------------|
E|-------------------|-----------------------|

~~~~~~~~~
E|----8b10-------8b10---------|-5-----5----------5-5------|
B|-12-------------------------|---8b9---8b10-(8)---5------|
G|----------------------------|----------------------7b9r-|
D|----------------------------|---------------------------|
A|----------------------------|---------------------------|
E|----------------------------|---------------------------|

E|-------------------------|----------------------------------|
B|-------------------------|----------------------------------|
G|-(7)-5b6-----------------|----------------------------------|
D|-----------7s5-----------|----------------------------------|
A|---------------5s3s==5-3-|----------------------------------|
E|-------------------------|-3b5==(3)r(3)b5-([3])-([3])--/15⁄-|

E|---8b10-------8b10---------|-8-5-----5-(5)s=17---|
B|---------------------------|-----8b9-------------|
G|---------------------------|---------------------|
D|---------------------------|-------------------3-|
A|---------------------------|---------------------|
E|-0-------------------------|---------------------|

E|-------------------------|---------------------------------|
B|-------------------------|---------------------------------|
G|-----------5-(5)---7s9-7-|-(7)-x-----()-()-----|
D|-(3)-3-5s7---------------|-----x-------------------------x-|
A|-------------------------|-------------------------------x-|
E|-------------------------|---------------------------------|

E|------------------------------------------------------|
B|---13b15r==(13)-13pb15r(13)b15==(13)r==(13)b15==(13)r-|
G|------------------------------------------------------|
D|------------------------------------------------------|
A|------------------------------------------------------|
E|-0----------------------------------------------------|

E|-----------------------------------------|
B|-(13)b17==(13)r(13)-10----10--(10)-------|
G|-----------------------12----------11s12-|
D|-----------------------------------------|
A|-----------------------------------------|
E|-----------------------------------------|

E|--------------------------|-------------|
B|--------------------------|-------------|
G|-(12)-11s==9s7-9s11s==9s7-|-7s9s2-2-[2]-|
D|--------------------------|-------------|
A|--------------------------|-------------|
E|--------------------------|-------------|

E|---8b10-----(8)-(8)-----8-5-|-8b8.5-5---5-(5)--x---|
B|----------------------------|---------8----------6-|
G|----------------------------|----------------------|
D|-0--------------------------|----------------------|
A|----------------------------|----------------------|
E|----------------------------|----------------------|

E|------------8-(8)---10s12-10-|-(10)-10---------------------------20b22===-|
B|-(6)---6s10------------------|---------13pb14==(13)b15==(13)r--0----------|
G|-----------------------------|--------------------------------------------|
D|-----------------------------|--------------------------------------------|
A|-----------------------------|--------------------------------------------|
E|-----------------------------|--------------------------------------------|

E|-(20)r(20)---17--------------------------|-----------------------------|
B|----------------20b22-17-----------------|-20b22-(20)---x⁄-------------|
G|-------------------------19b21r==(19)-17-|--------------x⁄-------------|
D|-----------------------------------------|--------------x⁄-------------|
A|-----------------------------------------|-----------------------------|
E|-----------------------------------------|-------------------2b3r(2)-0-|

E|------------------------|--------------------------5-|
B|------15b17--(15)-------|-------18b20--(18)---8b10---|
G|------------------------|-------------------0--------|
D|------------------------|----------------------------|
A|------------------------|----------------------------|
E|--0---------------0-2-3-|-(3)s0----------------------|

E|-8b9-5---5-(5)---------|-----------------------|
B|-------8--------8b10===|=(8)(8)r---8-----------|
G|-----------------------|-----------------------|
D|-----------------------|-----------------------|
A|-----------------------|-----------------------|
E|-----------------------|-------------2b3r(2)-0-|

E|-------------------------|--------------------------------17-|
B|------15b17--(15)⁄-------|----------18b20--(18)-----20b22----|
G|-------------------------|----------------------[0]----------|
D|-------------------------|-----------------------------------|
A|-------------------------|-----------------------------------|
E|-(0)---------------0-2-3-|-(3)s15p0--------------------------|

E|-20b21-17----17-(17)----|-(17)-|
B|----------20------------|------|
G|------------------------|------|
D|------------------------|------|
A|------------------------|------|
E|------------------------|------|
~~
E|-(17)---15h17p15s14s12s10s12-|-12s14-12s10-10s12-|
B|-----------------------------|-------------------|
G|-----------------------------|-------------------|
D|-----------------------------|-------------------|
A|-----------------------------|-------------------|
E|-----------------------------|-------------------|

E|-14-(14)b15r(14)-12h14p12s10s9-10s9s|=7s5s3--3s5-(5)-|
B|------------------------------------|----------------|
G|------------------------------------|----------------|
D|------------------------------------|----------------|
A|------------------------------------|----------------|
E|------------------------------------|----------------|

E|-7-5h7p5p0-7h9p0-9h10p0-10h12p0-9h10p0-|
B|---------------------------------------|
G|---------------------------------------|
D|---------------------------------------|
A|---------------------------------------|
E|---------------------------------------|

E|-7p0-5p0-3h5p3p0-2h3p2p0-3h5p3p0-2h3p2p0-|
B|-----------------------------------------|
G|-----------------------------------------|
D|-----------------------------------------|
A|-----------------------------------------|
E|-----------------------------------------|

E|---------------------------------------------|-----------------------|
B|-3h5p3p0-2h3p2p0-3h5p3p0-5h7p5p0-3h5p3p0-2p0-|-[3]s[5]---[5]---------|
G|---------------------------------------------|---------------/17⁄--2-|
D|---------------------------------------------|---------------------2-|
A|---------------------------------------------|---------------------0-|
E|---------------------------------------------|-----------------------|

E|------------|------------|-----|
B|------------|------------|-----|
G|-(2)--------|-[2]--------|-(2)-|
D|-(2)--------|------------|-----|
A|-(0)--------|------------|-----|
E|------------|------------|-----|

E|------------|---------------------|-----|
B|------------|---------------------|-----|
G|-(2)--------|-(2)---[2]-(2)---[2]-|-(2)-|
D|------------|---------------------|-----|
A|------------|---------------------|-----|
E|------------|---------------------|-----|

E|------------|------------|-----|
B|------------|------------|-----|
G|-(2)--------|-(2)--------|-(2)-|
D|------------|------------|-----|
A|------------|------------|-----|
E|------------|------------|-----|

E|------------|------------|---------------------------------|
B|------------|------------|---------------------------------|
G|------------|------------|------------------------------|
D|------------|------------|---------------------------|
A|------------|------------|---------------------|
E|------------|------------|---------------------------------|

E|------------|---------------------------------|
B|------------|---------------------------------|
G|------------|------------------------------|
D|------------|---------------------------|
A|------------|---------------------|
E|------------|---------------------------------|

E|------------|---------------------------------|
B|------------|---------------------------------|
G|------------|------------------------------|
D|------------|---------------------------|
A|------------|---------------------|
E|------------|---------------------------------|

E|---------------------------------|
B|---------------------------------|
G|------------------------------|
D|---------------------------|
A|---------------------|
E|---------------------------------|

E|---------------------------|-----------------------------------|
B|------------12--(12)-------|---------12-(12)------------12--14-|
G|---14-12h14----------14-12-|-(12)-14----------14-12--14--------|
D|---------------------------|-----------------------------------|
A|---------------------------|-----------------------------------|
E|---------------------------|-----------------------------------|

E|--------------------------------------------|
B|-(14)--(14)-12------------------------------|
G|---------------14-12s11-(11)h=12p11h12p11s7-|
D|--------------------------------------------|
A|--------------------------------------------|
E|--------------------------------------------|

E|--------------------|-----------17--------15--------14--------|
B|--------------------|-----12s15----15s=14----14s=12----12s=10-|
G|-7s9-9s11s=9-(9)----|-(9)-------------------------------------|
D|--------------------|-----------------------------------------|
A|--------------------|-----------------------------------------|
E|--------------------|-----------------------------------------|

E|-12-------10------9------7------|
B|----10s=8----8s=7---7s=5---5s=3-|
G|--------------------------------|
D|--------------------------------|
A|--------------------------------|
E|--------------------------------|

E|-5------3-2h3p2p0---------------|---------------|
B|---3s=2-----------3-2h3p2p0-(0)-|---------------|
G|--------------------------------|-2s4s2p0-------|
D|--------------------------------|---------2s[7]-|
A|--------------------------------|---------------|
E|--------------------------------|---------------|

E|-----------17b19==(17)r=(17)-19b21-17-|
B|--------------------------------------|
G|--------------------------------------|
D|-([7])-x------------------------------|
A|---------x----------------------------|
E|---------x----------------------------|

E|-(17)--[17]--17--17s15-|-19-15-14------------------------------|
B|-----------------------|----------15-14p=12--------------------|
G|-----------------------|--------------------12s11-----------11-|
D|-----------------------|---------------------------12s11s9-----|
A|-----------------------|---------------------------------------|
E|-----------------------|---------------------------------------|

E|-------------------------|
B|-------------------------|
G|------9--------7s9-------|
D|-9s7----7s5--5-----7b8-7-|
A|-------------------------|
E|-------------------------|

E|-----------------------------------------|
B|-----------------------------------------|
G|-----0-11s12----------0h9h11----------7s-|
D|-(7)---------12s11h12--------0h9h11-0----|
A|-----------------------------------------|
E|-----------------------------------------|

E|---------0h2s3-0-5h7---------0h3h5-|---------------------------------|
B|-----3h5-------------5h7p5-5-------|-0h3h5---------------------------|
G|-4p0-------------------------------|-------0h4h5---------------------|
D|-----------------------------------|-------------0h4h5---------4s5---|
A|-----------------------------------|-------------------0h4h5-0-----0-|
E|-----------------------------------|---------------------------------|

E|-------------------------|--------------------------------|
B|--------------12b14------|--------------------------------|
G|-------------------------|--------------------------------|
D|-------------------------|--------------------------------|
A|-4s5p0h2--2-0---------12s|=0-------0---0--------0--0------|
E|-------------------------|----3b5----------3b5--------3b5-|

E|----------------------------|--------------------------------|
B|----------------------------|--------------------------------|
G|----------------------------|--------------------------------|
D|----------------------------|--------------------------------|
A|--0---0--------0--0-0-----0-|-0-------0---0--------0-------0-|
E|----------3b5---------3b5---|----3b5----------3b5-----3b5----|

E|-------------------------------|----------------------------------|
B|-------------------------------|----------------------------------|
G|-------------------------------|----------------------------------|
D|-------------------------------|----------------------------------|
A|-------0--------0------0-----0-|------0--------0--------0--0------|
E|--3b5------3b5-----3b5---3b5---|-3b5------3b5------3b5--------3b5-|

E|-----------------------------|------------------------------|
B|-----------------------------|------------------------------|
G|-----------------------------|------------------------------|
D|-----------------------------|------------------------------|
A|--0--------0-------0-0-----0-|-0--0--------0---0-------0--0-|
E|------3b5------3b5-----3b5---|--------3b5----------3b5------|

E|-----------------------------|--------------------------------|
B|-----------------------------|--------------------------------|
G|-----------------------------|--------------------------------|
D|-----------------------------|--------------------------------|
A|--0--------0-------0-0-----0h|=2--0--------0--------0--0------|
E|------3b5------3b5-----3b5---|--------3b5------3b5--------3b5-|

E|--------------------------------|-----------------------------|
B|--------------------------------|-----------------------------|
G|--------------------------------|-----------------------------|
D|--------------------------------|-----------------------------|
A|-0--0--------0---0---0-------0--|--0--------0-------0-----0-0-|
E|--------3b5-------------3b5-----|------3b5------3b5---3b5-----|

Тональность:

Это должно быть в ТОП-листе! - Топ-лист композиций



Назад
Рекомендуем посмотреть другие песни исполнителя «Satriani Joe»:

  • Комменты Fb ()
  • Комменты ВК



Добавить в Избранное Браузера
Сохранить здесь Очистить


x

0


+
-

+
-

-

Авторизация





Зарегистрироваться

M

Дата и время

  • 19:01:52
     

Социальные ссылки


Наши приложения

  • Muzbank App Play Market
  • Muzbank Amazon App