MUZBANK


МУЗЫКАЛЬНО-ИНФОРМАЦИОННЫЙ БАНК





SSatriani Joe • Up In The Sky (аккорды и текст - chords & lyrics)


439

Print

Видео «Up In The Sky (Satriani Joe)»

Видео клипы к песне подбираются автоматически сайтом youtube. Возможны некоторые несоответствия клипов песне.

↑ Спрятать рекламу ↑





E|--12----------7-----------------5--|--12-------------------5--|
B|------12---------7-----7-----5-----|------12------7-----5-----|
G|----------12--------7-----5--------|----------12-----5--------|
D|-----------------------------------|--------------------------|
A|-----------------------------------|--------------------------|
E|-----------------------------------|--------------------------|

E|-----------|--------------------------------------|
B|-----------|--------------------------------------|
G|-----------|--------------------------------------|
D|-----------|-----------------5--X--X--7--X--X-----|
A|-----------|--------7--X--X-----------------------|
E|------17/--|--0--0--------------------------------|

~~~~
E|---------------------------------|
B|---------------------------------|
G|-------7----7--------------------|
D|--/9------------9/7--5-----------|
A|------------------------7--7-----|
E|---------------------------------|

~~~~ ~~~~~~
E|---------------------------------------|------------------|
B|---------------------------------------|------------------|
G|---------------------------------------|------------------|
D|-------------0--0--5---X--X--7--X--X---|--7---------------|
A|--(7)----/7----------------------------|-----5----5-------|
E|---------------------------------------|------------------|

P
E|--------------------------------------|-------------------
B|--------------------------------------|-------------------
G|--------------------------------------|--------7----9--7--
D|-----------------5--X--X--7--X--X-----|----/9-------------
A|--------7--X--X-----------------------|-------------------
E|--0--0--------------------------------|-------------------


sh~~~~~~~~~~~~~
E-----------------------|-------------------------------------|
B-----------------------|-------------------------------------|
G-----------------------|-------------------------------------|
D--9/7--5---------------|-------------0--0--5--X--X--7--X--X--|
A----------7---7--------|--(7)----/7--------------------------|
E-----------------------|-------------------------------------|

~~~~~~~~
E|-----------------------|
B|-----------------------|
G|-----------------------|
D|-----------------------|
A|--4>(6)>(4)--4---------|
E|-----------------------|

~~~~~~~~ P ~~~~~~
E|------------------------------|-------------------------------|
B|------------------------------|-------------------------------|
G|--------11>(12)--11--------9--|--9--7-------------------------|
D|------------------------------|--------12--9--9-------9--5/7--|
A|------------------------------|-------------------------------|
E|--0--0------------------------|-------------------------------|

~~~~~~~~ P ~~~~~~
E|-------------------------------|------------------------|
B|-------------------------------|------------------------|
G|---------11>(12)--11--------9--|--9--7------------------|
D|-------------------------------|--------12--------------|
A|--7--7-------------------------|------------12--12------|
E|-------------------------------|------------------------|

~~~~~~~~ P ~~~~~~
E|------------------------------|-------------------------------|
B|------------------------------|-------------------------------|
G|--------11>(12)--11--------9--|--9--7-------------------------|
D|------------------------------|--------12--9--9-------9--5/7--|
A|------------------------------|-------------------------------|
E|--0--0------------------------|-------------------------------|

~~~~~~~~ P ~~~~~~
E|-------------------------------|-----------------------------|
B|-------------------------------|-----------------------------|
G|---------11>(12)--11--------9--|--9--7-----------------------|
D|-------------------------------|--------12-------------------|
A|--7--7-------------------------|------------12--12------12/--|
E|-------------------------------|-----------------------------|


E|--------------------------------------|
B|--------------------------------------|
G|------------------12--X--X--14--X--X--|
D|--------14--X--X----------------------|
A|--------------------------------------|
E|--0--0--------------------------------|


E|-------------------------------------|
B|-------15----15----------------------|
G|--/16------------16/14--12-----------|
D|----------------------------14--14/--|
A|-------------------------------------|
E|-------------------------------------|

~~~~ ~~~~ ~~~~~~
E|-------------------------------------|----------------------------|
B|-------------------------------------|----------------------------|
G|---------12--12--12--X--X--14--X--X--|--14------------------------|
D|----/14------------------------------|------12----12------12------|
A|-------------------------------------|----------------------------|
E|-------------------------------------|----------------------------|


E|--------------------------------------|
B|--------------------------------------|
G|------------------12--X--X--14--X--X--|
D|--------14--X--X----------------------|
A|--------------------------------------|
E|--0--0--------------------------------|

P
E|-----------------------------------------|
B|-------15----17--15----------------------|
G|--/16----------------16/14--12-----------|
D|--------------------------------14--14/--|
A|-----------------------------------------|
E|-----------------------------------------|
^
Should be able to get this
pull off with your pinkie.

E|-----------------------------------|
B|-----------------------------------|
G|---------------12--X--X--14--X--X--|
D|----/14--X--X----------------------|
A|-----------------------------------|
E|-----------------------------------|

Let Ring----------------------]
E|---------------------------------|
B|----------------10------10-------|
G|---------------------------------|
D|--11>(12)>(11)---------------11--|
A|---------------------------------|
E|---------------------------------|

~~~~~~~~ P P ~~~~~~~~
E|--------14>(15)--14--------12--|--14--12--10--------------|
B|-------------------------------|--------------12--12------|
G|-------------------------------|--------------------------|
D|-------------------------------|--------------------------|
A|-------------------------------|--------------------------|
E|--0--0-------------------------|--------------------------|

~~~~ ~~~~~~~~ P P ~~~~~~~~~~~~
E|---------14>(15)--14--------12--|--14--12--10------------------|
B|--(12)--------------------------|--------------10--10----------|
G|--------------------------------|------------------------------|
D|--------------------------------|------------------------------|
A|--------------------------------|------------------------------|
E|--------------------------------|------------------------------|

~~~~ ~~~~~~~~ P P ~~~~~~~~
E|------------14>(15)--14--------12--|--14--12--10--------------|
B|--(10)-----------------------------|--------------12--12------|
G|-----------------------------------|--------------------------|
D|-----------------------------------|--------------------------|
A|-----------------------------------|--------------------------|
E|-----------------------------------|--------------------------|

~~~~ ~~~~~~~~ P P ~~~~~~~~
E|---------14>(15)--14--------12--|--14--12--10-------------------|
B|--(12)--------------------------|--------------10--10-----------|
G|--------------------------------|-------------------------------|
D|--------------------------------|-------------------------------|
A|--------------------------------|--------------------------19/--|
E|--------------------------------|-------------------------------|


E|-----------------------------------|--------------------------|
B|--------8--------8--8-----8-----8--|-----8-----8-----8-----8--|
G|--------7--------7--7-----7-----7--|-----7-----7-----7-----7--|
D|-----------------------------------|--------------------------|
A|-----7-----7--7--------7-----7-----|--7-----7-----7-----7-----|
E|--0--------------------------------|--------------------------|


E|-----------------------------|---------------------------------|
B|--8-----8-----8-----8-----8--|--X--8----8----8--8--8--8--8-----|
G|--7-----7-----7-----7-----7--|--X--7----7----7--7--7--7--7-----|
D|-----------------------------|---------------------------------|
A|-----7-----7-----7----7------|---------------------------------|
E|-----------------------------|---------------------------------|

These next few chords are a little difficult,
with practice, it should be pretty much straight forward.

E|-----------------------|------------------------|
B|-----------------------|------------------------|
G|--11----9---------11/--|--4----4------4/--------|
D|--9-----9---------9/---|--0----0----------0--0--|
A|-----------------------|------------------------|
E|--7----------7---------|--3---------------------|
^ ^
To get these shapes, your first finger when playing the E string,
slightly dampens the A string, so you can play this like a chord.


E|-----------------------|-----------------------------|
B|-----------------------|-----------------------------|
G|--14-----12-----11-----|--9--------------------------|
D|------0------0------0--|--7------7--11

Тональность:

Это должно быть в ТОП-листе! - Топ-лист композиций



Назад
Рекомендуем посмотреть другие песни исполнителя «Satriani Joe»:

  • Комменты Fb ()
  • Комменты ВК



Добавить в Избранное Браузера
Сохранить здесь Очистить


x

0


+
-

+
-

-

Авторизация





Зарегистрироваться

M

Дата и время

  • 13:30:56
     

Социальные ссылки


Наши приложения

  • Muzbank App Play Market
  • Muzbank Amazon App