MUZBANK


МУЗЫКАЛЬНО-ИНФОРМАЦИОННЫЙ БАНК





SScorpions • Born To Touch Your Feelings (аккорды и текст - chords & lyrics)


1181

Print

Видео «Born To Touch Your Feelings (Scorpions)»

Видео клипы к песне подбираются автоматически сайтом youtube. Возможны некоторые несоответствия клипов песне.

↑ Спрятать рекламу ↑






Intro.

Verse 1.
Riff 1.
I was born from the sound of the strings
For someone to give everything
                           Riff 2a
To be a song just for your fealings.

Riff 1.
Close your eyes and I?ll try to get in
To waken your heart like the spring
                                Riff 3.
?Cause I was born to touch your fealings.

Verse 2.
(Music is the same but instead Riff 2a, play Riff 2b)

Steal the time, take a song and be glad,
Be free as the birds, dont be sad,
Your time will come i?ll make you feel it.

You?re still young like the sun after rain,
Follow the light, it?s not in vain,
And you will see i?ll touch your fealings.

Tidi-daraida-daram (along with the second part of Riff 3)

Chorus:
H                 Gb
  You?ve got your songs
           Dbm
  They are everyday
        Abm
  For awhile
           Gb
  Just the only way
              Abm  E Gb H
  To feel all right     (2 times)
                                  Riff 4.

Verse 3.

You were born just to lose or to win
To be someone?s chime in the wind
To live between your mind and fealings.

Find your way check it out, learn each day,
Follow the light, its not in vain
And you will see I?ll touch your fealings.

Tidi-daraida-daram.

Chorus (4 times).
                   (Dont play Riff 4 this time.)
Outro.

2. THE MUSIC

This song is played in Ab-moll. But Scorpions changed the
tuning of their guitars like this:

Eb|
Bb|
Gb| (As you see they have lowered a pitch of their strings
Db| onto one semi-tone.)
Ab|
Eb|

So they?re playing in Abm while using application of Am. You
cam change your tuning too, if you want, and if you don?t, you
can play this song in Am like I?m doing. I wrote all the
accords correctly, in Abm. If you want to find out how ?ll it
be looking in Am then you can use the table below.

Abm   - Am
Edim  - Fdim
Eb    - E
Gb    - G
B     - C
A     - Bb
E     - F

And the music, which is wrote with the numbers will be correct
anyway: on the normaly tuned guitar it will be in the Am, and
on the guitar with changed tuning it will be in the Abm.

Intro.
Abm (5th fret), Edim (3rd fret), Eb (1st fret), Abm (5th).
Abm (5), Edim (3), Eb (1), Abm (5), Gb (3), B (3), A (1).
Abm (8), Eb7 (7), Abm (5).

Riff 1.

1|----5-----5-----5-----5--|------------------------|
2|--5--5--5--5--5--5--5--5-|---5-----5-----5-----5--|
3|---5--5--5--5--5--5--5--5|-7--7--7--7--7--7--7--7-|
4|-7-----------7-----------|--6--6--6--6--6--6--6--6|
5|-------7-----------7-----|7-----7-----7-----7-----|
6|-------------------------|------------------------|

1|----0-----0-----0-----0--|
2|--0--0--3--3--3--3--3--3-|
3|---1--1--1--1--1--1--4--4|
4|-------------0-----6-----|
5|-2-----2-----------------|
6|-------------------------|

Riff 2a                         Riff 2b
1|----5-----0-----1-----0--|    1|----5-----0-----0-----0--|
2|--5--5--3--3--1--1--5--5-|    2|--5--5--3--3--1--1--5--5-|
3|---5--5--4--4--2--2--4--4|    3|---5--5--4--4--2--2--4--4|
4|-7-----------------------|    4|-7-----5-----3-----2-----|
5|-------5-----3-----2-----|    5|-7-----5-----3-----2-----|
6|-------------------------|    6|-------------------------|

Riff 3.(I know, its not correct, but its very hard to play this
        thing correctly, because it?s played on several guitars.
        If you?re skillful enough to play ANYTHING, then you
        won?t need my consulting you how to play this song
        at all.)

1|----(5875)---(7107)----(812118)------|---0-----0-----5---|
2|--5--------5--8-------8---8----8--11-|-5--5--5--5--5--5--|
3|---5-----------7-----------9------10-|--5--5--4--4--5--5-|
4|-7-----------9----------10--------8--|7-----2-----------7|
5|-------------------------------------|7-----2-----7------|
6|-------------------------------------|------------5------|

Riff 4.
     arp         arp        arp       arp
1|------7-5-------7-8-10-----8-10-12--10--|
2|---10-----------8----------8--------11--|
3|---9------------7----------9--------10--|
4|--10----------------------10--------12--|
5|----------------------------------------|
6|----------------------------------------|

    arp       arp     arp arp     arp
              ,^-----,
1|--13--12----10-8--7--------7--8---|
2|--10---------9-9--9--9--10------10|
3|--9----------9-9--9--7--9-------9-|
4|-10------------------9--10-----10-|
5|----------------------------------|
6|----------------------------------|

arp - means you should play your strings quickly one by one
(may be with the mediator).

OUTRO
___________________________________
                 Eb_Ab_Db_Gb_Bb_Eb |
                 6  5  4  3  2  1  |
                 |__|__|__|__|__|  |
                ------------------ |
Abm (5th fret)   5  7  7  5  5  5  |
                ------------------ |
E (5)            5  8  7  5  6  5  |
                ------------------ |
Gb (7)           7  10 9  7  8  7  |
                ------------------ |
Abm (7)          x  7  7  9  10 7  |
___________________________________|

Play accords from the frame above one time: Abm E Gb Abm, with
the right-hand method similar to Riff 1.

Then bass change (chords are the same*):
  xxxxx xxxxx xxxxx xxxxx xxxxx xxxxx xxxxx xxxxx> 1,2,3 strings
4|-------7-----------7-----------5-----------7-----|
5|-------------8-----------5-----------0-----------|
6|-5-----------------------------------------------|
* NOTE: The same, exept Gb (7) and fourth accord in this musical
phrase - Abm (7):

Gb:     x  5  5  7  8  7
Abm:    x  0  7  9 10  7

After the second time solo comes:

   Abm   E   Gb              Abm
                  ,-----------^---------------------------,

1|-----|----|----|-----------8/78----12/1012----17/1517-|
2|---10|--10|--12|10/810--------------------------------|
3|-----|----|----|--------------------------------------|
4|-7---|7---|9---|--------------------------------------|

Тональность:

Это должно быть в ТОП-листе! - Топ-лист композиций



Назад
Рекомендуем посмотреть другие песни исполнителя «Scorpions»:

  • Комменты Fb ()
  • Комменты ВК



Добавить в Избранное Браузера
Сохранить здесь Очистить


x

0


+
-

+
-

-

Авторизация





Зарегистрироваться

M

Дата и время

  • 06:06:06
     

Социальные ссылки


Наши приложения

  • Muzbank App Play Market
  • Muzbank Amazon App