MUZBANK


МУЗЫКАЛЬНО-ИНФОРМАЦИОННЫЙ БАНК





SScorpions • Rhythm of love (аккорды и текст - chords & lyrics)


1517

Print

Видео «Rhythm of love (Scorpions)»

Видео клипы к песне подбираются автоматически сайтом youtube. Возможны некоторые несоответствия клипов песне.

↑ Спрятать рекламу ↑





 
Gm                       Cm7  
Let`s spend the night together  
   F                Gm  
I know you want it too  
Gm                Cm7  
The magic of the moment  
    F                Gm  
Is what I`ve got for you  
A#                     F  
The heartbeat of this night  
   Eb            F  
Is made to lose control  
               A#                F  
And there is something in your eyes  
            Eb          F  
That`s longing for some more  
 


E|----------------------| 
B|----------------------| 
G|--------------5-5~5---| 
D|------5-8-5~--------8-|               
A|--5-8-----------------|                 
E|----------------------| 

 
 
Gm              Cm7  
Let us find together  
      F                 Gm  
The beat we`re looking for  
              Gm      F  
The rhythm of love  
            Eb          F  
Keeps me dancing on the road  
              Gm      F  
The rhythm of love  
           Eb                F  
Got the groove that hits the bone  
              Gm       F  
The rhythm of love   
        Eb              F  
Is the game I`m looking for  
              Gm      F  
The rhythm of love   
            Eb           F  
Is the heartbeat of my soul  
 
 
(Gm Cm7 F Gm)  
Let`s reach the top together  
One night will never do  
An exploding shot of pleasure  
Is what I`ve got for you  
(A# F Eb F)  
Why don`t you close your eyes  
And let your feeling grow  
I make you feel the taste of life  
Until your love will flow  
Let us find together  
The beat we`re longing for 


               Gm       Cm7    F               Gm           Gm
e|---------|------------|------|---------------|------------|------------|
 |---------|------------|------|---------------|------------|------------|
 |---------|------------|------|---------------|------------|------------|
 |---------|--8---------|--12--|--10--12-P-10--|--8---------|--8---------|
 |--8--10--|-----8--10--|------|---------------|-----8--10--|-----8--10--|
E|---------|------------|------|---------------|------------|------------|

  Cm7    F                   Gm
e|------|-------------------|-----|-------|
 |------|-------------------|-------------|
 |------|-------------------|--10--(12)---|
 |--12--|--10--12-P-10-P-8--|-------------|
 |------|-------------------|-------------|
E|------|-------------------|-----|-------| 

Тональность:

Отправитель: Rhythmic

Это должно быть в ТОП-листе! - Топ-лист композиций



Назад
Рекомендуем посмотреть другие песни исполнителя «Scorpions»:

  • Комменты Fb ()
  • Комменты ВК



Добавить в Избранное Браузера
Сохранить здесь Очистить


x

0


+
-

+
-

-

Авторизация





Зарегистрироваться

M

Дата и время

  • 13:08:05
     

Социальные ссылки


Наши приложения

  • Muzbank App Play Market
  • Muzbank Amazon App