MUZBANK


МУЗЫКАЛЬНО-ИНФОРМАЦИОННЫЙ БАНК





SScorpions • The Sails of Charon (аккорды и текст - chords & lyrics)


474

Print

Видео «The Sails of Charon (Scorpions)»

Видео клипы к песне подбираются автоматически сайтом youtube. Возможны некоторые несоответствия клипов песне.

↑ Спрятать рекламу ↑






E|---------------------------------------------------|
B|---------------------------------------------------|
G|---------------------------------------------------|
D|---------------------------------------------------|
A|-2/14--14--12--10--9---9---10--12--3---3---5---7---|
E|---------------------------------------------------|

E|-------------------------|
B|-------------------------|
G|-------------------------|
D|-------------------------|
A|-2---2---2/3---3---5---7-|
E|-------------------------|

  ried my best. Good luck.

E|--------------------------------------|
B|--------------------------------------|
G|--------------------------------------|
D|--------------------------------------|
A|--2---2---2/14--12--10--9---10--12--6-|
E|--------------------------------------|

  Section A2
e:|----------------------------------------------|
B:|----------------------------------------------|
G:|----------------------------------------------|
D:|----------------------------------------------|
A:|--2/14-14-12-10-9--9--10-12-3--3--5--7--2--2--|
E:|----------------------------------------------|

E|-----------------------------|
B|-----------------------------|
G|-----------------------------|
D|-----------------------------|
A|-2/3--3--3--5--7--2--2--2/14-|
E|-----------------------------|

E|--------------------------------------------|
B|--------------------------------------------|
G|--------------------------------------------|
D|--------------------------------------------|
A:12-10-9--10-12-6--2/14-12-10-9--10-12-------|
E|--------------------------------------10/8--|

E|--------------------------------|
B|--------------------------------|
G|--------------------------------|
D|--------------------------------|
A|-2/14-12-10-9--10-12-14-12-10-9-|
E|--------------------------------|

E|--------|
B|--------|
G|--------|
D|--------|
A|-10-12--|
E|--------|

     Section B1 Rythym   C  B  D  C
E|----------------------------------|
B|----------------------------------|
G|-----------------------5--4--7--5-|
D|-----------------------5--4--7--5-|
A|-----------------------3--2--5--3-|
E|----------------------------------|

     Section B2   C/B  B  B  C/B  B  B  C  B/C  B  B  C  C  C
E|------------------------------------------------------------|
B|------------------------------------------------------------|
G|----------------5/4--4--4--5/4--4--4--5--5/4--4--4--5--5--5-|
D|----------------5/4--4--4--5/4--4--4--5--5/4--4--4--5--5--5-|
A|----------------3/2--2--2--3/2--2--2--3--3/2--2--2--3--3--3-|
E|------------------------------------------------------------|

E|--------------|
B|--------------|
G|-Play-3-times-|
D|---3rd-time-o-|
A|---last-5-cho-|
E|--------------|

E|------|
B|------|
G|-more-|
D:mit---|
A:rds---|
E|------|

    Section B2
E|--------------------------------------------------8--8/7-7-7-|
B|-5-5/4--4--4--5--5/4--4--4--5--5/7--5--5/4--4--4--5--5/4-4-4-|
G|-------------------------------------------------------------|
D|--To-be-played-over-Section-B1--Not-a-separate-section-------|
A|-------------------------------------------------------------|
E|-------------------------------------------------------------|

E|-8--8/10-8--8/7--7--7--8--8/7--7--7--8--8/7--7--7-|
B|-5--5/7--5--5/4--4--4--5--5/4--4--4--5--5/4--4--4-|
G|--------------------------------------------------|
D|--------------------------------------------------|
A|--------------------------------------------------|
E|--------------------------------------------------|

      Section C1
E|-----------------------17------------------------------------|
B|-----------------------------7--8--10-8--7-----8--7----------|
G|-----------------11/14----------------------9--------9--8--9-|
D|------------9/13---------------------------------------------|
A|--2/6--6/12--------------------------------------------------|
E|-------------------------------------------------------------|

E|---------------------------------------------------------------------------|
B:7--8--7-----75-----54-----------4--5--4----------------------------------|-|
G|---------9-------8-------5--4--5-----------7--5--4--2--5--4--2-------------|
D|----------------------------------------------------------------5--4-----4-|
A|----------------------------------------------------------------------7----|
E|---------------------------------------------------------------------------|

E|--------------------------------------------------------------------|
B|--------------------------------------------------------------------|
G|-------4--5--7--5--4--------------4~--------------------------------|
D|-5--7-----------------7--5--4---------4~--4--5--7--5--4-----4--5/11-|
A|-------------------------------7-------------------------7----------|
E|--------------------------------------------------------------------|

     Section C2
E|-------------------------------------15----------------14----------------12-|
B|-------------------------------12-13----13-1210-10-12----12-108--8--10---|--|
G|-------------11-12-14-12-11-------------------------------------------------|
D|----------------------------14----------------------------------------------|
A|----------------------------------------------------------------------------|
E|----------------------------------------------------------------------------|

E|---------------10---------------8-----------------------------5-------------|
B|-10-87--7--8-----8--75--4--5-----5--4-----------7--------------8--7--5---|--|
G|-----------------------------------------5--4--5-----5--4-----------------8-|
D|-----------------------------------------------------------7----------------|
A|----------------------------------------------------------------------------|
E|----------------------------------------------------------------------------|

E|--------------------------|
B|--------------------------|
G|--54--------------4--5/10-|
D|-------7--5--3------------|
A|----------------7---------|
E|--------------------------|

    Section C3
E|------------------------------15-14-15-14-------12-11-----------------------|
B|------------13-12-10-12----10----------------------------10~--13-12-10-12---|
G|------------------------11----------------------------11------------------1-|
D|------------------------------------------13-14-----------------------------|
A|----------------------------------------------------------------------------|
E|----------------------------------------------------------------------------|

E|-----15-14-15-14-------12-11-----------------------------------|
B|--10----------------------------10~-------------10-7-----7-----|
G:1----------------------------11-----------------------8--------|
D|-----------------13-14--------------9--9--8--7--------------10-|
A|---------------------------------------------------------------|
E|---------------------------------------------------------------|

   Section D1-  Two guitar harmony - lower guitar
E|-------------5--8--5--8--5--8--5--5--------5--8--5--5--------5--8--5--5----|
B|----------7--------------------------4--7--------------4--7--------------4-|
G|---------------------------------------------------------------------------|
D|---------------------------------------------------------------------------|
A|---------------------------------------------------------------------------|
E|---------------------------------------------------------------------------|

E|----5--8--5--5----6--9--6--6-----6--7--10-7--7-----7--8--11-8--8-----8--9-|
B|-7----------------------------8-----------------9-----------------10------|
G|--------------------------------------------------------------------------|
D|--------------------------------------------------------------------------|
A|--------------------------------------------------------------------------|
E|--------------------------------------------------------------------------|

e:12-9--9-----9-|
B|---------11---|
G|--------------|
D|--------------|
A|--------------|
E|--------------|

   Section D2 - upper guitar
E|-------------11-14-11-14-11-14-11-11-------11-14-11-11-------11-14-11-11----|
B|----------13-------------------------10-13-------------10-13-------------10-|
G|----------------------------------------------------------------------------|
D|----------------------------------------------------------------------------|
A|----------------------------------------------------------------------------|
E|----------------------------------------------------------------------------|

E|----11-14-11-11-12-15-12-12----12-13-16-13-13----13-14-17-14-14----14-15-18-|
B|-13-------------------------14----------------15----------------16----------|
G|----------------------------------------------------------------------------|
D|----------------------------------------------------------------------------|
A|----------------------------------------------------------------------------|
E|----------------------------------------------------------------------------|

E|-15-15----15-|
B|-------17----|
G|-------------|
D|-------------|
A|-------------|
E|-------------|

   Section E
E|------------19~-19~-19~-19~-19b(20)-19b(20)-19b(20)19----17~-14----14--5/8-|
B|------------------------------------------------------19--------16---------|
G|---------------------------------------------------------------------------|
D|---------------------------------------------------------------------------|
A|---------------------------------------------------------------------------|
E|---------------------------------------------------------------------------|

E|-11----8-------------------------------------|
B|----10----7--10----7--------------------7----|
G|----------------8--------8-----8-----------8-|
D|----------------------10----10----10-7-------|
A|---------------------------------------------|
E|---------------------------------------------|

     Section F1
E|---------------------------------------------------------------------------|
B|---------------------------------------------------------------------------|
G|-------------------------------------------------4-------------------------|
D|-------------9--7--5--7--5--4--5--4-----4--5--7--------------------------5-|
A|-------------------------------------7--------------7--7--6--7--5--7--9----|
E|----------------------------------------------------8--8--7--8-------------|

E|---------------------------------------------------------------------------|
B|---------------------------------------------------------------------------|
G|-------------------------------4-----------4--4-----4-----4--5--7--5--4----|
D|----------5--5--4--5--4--5--7-----7--5--4--5--5--7--5--7-----------------7-|
A|-9--7--5--7--7--6--7-----------------------------9-------------------------|
E|---------------------------------------------------------------------------|

E|----------------------------------7--8-----8-|
B|-5-----------7--5--------7--8--10-------10---|
G|----7--5--4--------7--5----------------------|
D|---------------------------------------------|
A|---------------------------------------------|
E|---------------------------------------------|

Тональность:

Это должно быть в ТОП-листе! - Топ-лист композиций



Назад
Рекомендуем посмотреть другие песни исполнителя «Scorpions»:

  • Комменты Fb ()
  • Комменты ВК



Добавить в Избранное Браузера
Сохранить здесь Очистить


x

0


+
-

+
-

-

Авторизация





Зарегистрироваться

M

Дата и время

  • 08:21:22
     

Социальные ссылки


Наши приложения

  • Muzbank App Play Market
  • Muzbank Amazon App