MUZBANK


МУЗЫКАЛЬНО-ИНФОРМАЦИОННЫЙ БАНК





SScorpions • Walking On The Edge (аккорды и текст - chords & lyrics)


570

Print

Видео «Walking On The Edge (Scorpions)»

Видео клипы к песне подбираются автоматически сайтом youtube. Возможны некоторые несоответствия клипов песне.

↑ Спрятать рекламу ↑






Intro & Verse:
    Dm              C             Dm              C
E|----1---------5-------------------1---------5-----|
B|------3-----------1-1-1-3---1-------3-----------1-|
G|--------2---------0-0-0-0---0---------2---------0-|
D|--0-------3-------2-2-2-2---2---0-------3-------2-|
A|------------------3-3-3-3---3-------------------3-|
E|--------------------------------------------------|

Verse:
Welcome to a trip
Into my hurt feelings
To the center of my soul
You better bring a light
To find the house of meanings
The labyrinth of yes or no

Bridge:
     Hm  D
For you life is just like chess
   F
If you don?t make the move
        G
You?ll lose the game like this

Chorus:
    Am   C         F             G
Cause you, you?re walking on the edge
Am         C        F              G
You, you choose the way of love and pain
Am C F                   G
You, don?t you see the bridge
               Am           C        F           G
I?ve built for you, it?s just one step to start again

Intro:
    Dm              C             Dm              C
E|----1---------5-------------------1---------5-----|
B|------3-----------1-1-1-3---1-------3-----------1-|
G|--------2---------0-0-0-0---0---------2---------0-|
D|--0-------3-------2-2-2-2---2---0-------3-------2-|
A|------------------3-3-3-3---3-------------------3-|
E|--------------------------------------------------|

Verse:
Welcome to a trip
Into my emotions
To the language of my heart
You?re sailing on a river
That becomes an ocean
Wich you can only cross with love
For you, life is just like chess

Bridge:
     Hm  D
For you, life is just like chess
   F
If you don?t make the move
        G
You?ll lose the game like this.

Chorus:
    Am   C         F             G
Cause you, you?re walking on the edge
Am         C        F              G
You, you choose the way of love and pain
Am C F                   G
You, don?t you see the bridge
               Am           C        F            G
I?ve built for you, it?s just one step to start again

Solo:
E|------------------------------------------|
B|-------8-7-------------8-7-10-8-------8-7-|
G|---7-9---------7---7-9------------7-9-----|
D|-7---------7-5---7--------------7---------|
A|------------------------------------------|
E|------------------------------------------|

E|------------------------|
B|--------------8-7-10-13-|
G|-----7---7--9-----------|
D|-7-5---7----------------|
A|------------------------|
E|------------------------|

Bridge:
     Hm  D
For you, life is just like chess
   F
If you don?t make the move
        G
You?ll lose the game like this.

Chorus:
    Am   C         F             G
Cause you, you?re walking on the edge
Am         C        F              G
You, you choose the way of love and pain
Am C F                   G
You, don?t you see the bridge
               Am           C        F            G
I?ve built for you, it?s just one step to start again

Riff:
Hm             D
Walking on the edge
Hm             D
Walking on the edge

Chorus:
    Am   C         F             G
Cause you, you?re walking on the edge
Am         C        F              G
You, you choose the way of love and pain
Am C F                   G
You, don?t you see the bridge
               Am           C        F            G
I?ve built for you, it?s just one step to start again

Riff:
Hm             D
Walking on the edge
Hm             D
Walking on the edge

Тональность:

Это должно быть в ТОП-листе! - Топ-лист композиций



Назад
Рекомендуем посмотреть другие песни исполнителя «Scorpions»:

  • Комменты Fb ()
  • Комменты ВК



Добавить в Избранное Браузера
Сохранить здесь Очистить


x

0


+
-

+
-

-

Авторизация





Зарегистрироваться

M

Дата и время

  • 12:21:46
     

Социальные ссылки


Наши приложения

  • Muzbank App Play Market
  • Muzbank Amazon App