MUZBANK



A MOST COMPLETE BANK OF MUSIC INFORMATION

МУЗЫКАЛЬНО-ИНФОРМАЦИОННЫЙ БАНК







    SSevendust • Bitch (аккорды и текст - chords & lyrics)


    273

    Print

    Видео «Bitch (Sevendust)»

    Видео клипы к песне подбираются автоматически сайтом youtube. Возможны некоторые несоответствия клипов песне.

    ↑ Спрятать рекламу ↑



    Download



     
    
    
    Sevendust
              bitch
              
              Tabbed by Matt Gates 
              
              fill 1 
              Gb|-------------------| |----------------|
              Db|-------------------| |----------------|
              Ab|-3/4-3/4-3/4-3-----| |-3/4-3/4-3/4-3^-|
              Db|---------------4-3-| |----------------|
              
              
              fill 2
              Gb|-------------------------|
              Db|-------------------------|
              Ab|-------------------------|
              Db|-0-0-0-0-1-0-0-0-0-1-0-1-|
              
              
              verse var 1
              var 2
              var 3
              Gb|---------------------------| |-------------------------| |-----------------------|
              Db|---------------------------| |-------------------------| |-----------------------|
              Ab|---------------------------| |-3/4-3/5-----------------| |-3/4-3/5-2-------------|
              Db|-0-0-0-0-3-0-1-0-1-0-1h2-0-| |---------0-1-0-1-0-1h2-0-| |-----------0-1-0-1h2-0-|
              
              
              durring intro riff
              Gb|----------------------------------------|
              Db|----------------------------------------|
              Ab|--------------------------0-5-5-5h7-----|
              Db|-2-2-0-2-2-2/9-9-9-9h11-9-----------5-7-|
              
              
              heavy fill
              Gb|-------------------------|--------------------|
              Db|-------------------------|--------------------|
              Ab|-----2-3-----2---3---3/4-|---------2-------2~-|
              Db|-0-0-----0-0---0---0-----|-0-0-0-0---0-0-0----|
              
              
              outro
              Gb|-----------------------------------------------------------------|
              Db|-----------------------------------------------------------------|
              Ab|-----------------1-1-1-1-1-1-1-1-3-3-3-3-3-3-3-3-----------------|
              Db|-0-0-0-0-0-0-0-0---------------------------------6-6-6-6-6-6-6-6-|
     

    Тональность:

    Это должно быть в ТОП-листе! - Топ-лист композиций



    Назад
    Рекомендуем посмотреть другие песни исполнителя «Sevendust»:

    • Комменты Fb ()
    • Комменты ВК



    Добавить в Избранное Браузера
    Сохранить здесь Очистить


    x

    0


    +
    -

    +
    -

    -

    Авторизация





    Зарегистрироваться

    M

    Дата и время

    • 17:04:20
       

    Социальные ссылки


    Наши приложения

    • Muzbank App Play Market
    • Muzbank Amazon App