MUZBANK



A Most Complete Bank Of Music Information

МУЗЫКАЛЬНО-ИНФОРМАЦИОННЫЙ БАНК








    SSevendust • Denial (аккорды и текст - chords & lyrics)


    386

    Print

    Видео «Denial (Sevendust)»

    Видео клипы к песне подбираются автоматически сайтом youtube. Возможны некоторые несоответствия клипов песне.

    ↑ Спрятать рекламу ↑



    Download


     
    
    
    Sevendust --- Denial
              
              tabbed by Matt Gates
              Intro
               G  -----------------------------------------
               D  -----------------------------------------
               A  -3/7-3/5-3/7-3/4-4/7-3/6-3/5-3-3/4-------
               E  -----------------------------------------
              Db  -----------------------------------------
              
              After Intro
               G  -----------------------------------------
               D  -----------------------------------------
               A  --------------------------------4--------
               E  -----------------------------------------
              Db  -2p0-0-0-2p0-0-0-2p0-0-0-2p0-------------
               
              Verse
               G  -----------------------------------------
               D  -----------------------------------------
               A  ---------------------------------4-------
               E  -----------------------------------------
              Db  -1p0-0-0-1p0-0-0-1p0-0-0-1p0-------------
              
              Chorus
               G  -------------------------------------------------------------------
               D  -5-5-5-5-5-7-7-7-7-7-----------------------------------------------
               A  -------------------------------------------------------------------
               E  -------------------------------------------------------------------
              Db  ----------------------6-6-6-6-6-4-4-4-4/12-4/12--2-3-4-5-6-2/3-2/3-
              
              Break
               G  ------------------------------------------------------------------------
               D  ------------------------------------------------------------------------
               A  ------------------4--3-3-3-3/5-5-5-5/3-3-3-3/1-1-1-1-/0-0-0-0/1-1-1-1-1-
               E -------------------------------------------------------------------------
              Db  -1p0-1p0-1p0-1p0--------------------------------------------------------
     

    Тональность:

    Нашли ошибку?



    Назад
    Рекомендуем посмотреть другие песни исполнителя «Sevendust»:

    • Комменты Fb ()
    • Комменты ВК



    Добавить в Избранное Браузера
    Сохранить здесь Очистить


    x

    0


    +
    -

    +
    -

    -

    Авторизация





    Зарегистрироваться

    M

    Дата и время

    • 14:48:59
       

    Социальные ссылки


    Наши приложения

    • Muzbank App Play Market
    • Muzbank Amazon App